Lit - Lullaby Chords & Tabs

 

Lullaby Chords & Tabs

Lit Chords & Tabs

Version: 1 Type: Tab 0 ratings
1 star 2 stars 3 stars 4 stars 5 stars
comments

Lullaby Tab

   
*********************
*** Lit - Lullaby ***
*********************

...tab by:  Sevencynz
....email:  vmp115@psu.edu


TUNING:
half step down ---> Eb Ab Db Gb Bb eb

CHORDS USED:
 E---3------3-------0------0------0------2-|
 B---3------3-------1------1------0------3-|
 G---0------0-------0------2------0------2-|
 D---0------2-------2------2------2------0-|
 A---2------3-------3------0------2------x-|
 E---3------x-------x------0------0------x-|
     G      Cadd9   C      Am     Em	 D

OCCASIONAL RIFF USED:
--------------|
--------------|
--------------|
--------------|
2h3p2---------|
--------------|

PIANO INTRO:

3---5---7-8-10----- 10-8-7-8-7--------(8)---8-7---8-7---8-7-|
3-3---3-------(8)---8-----------(8)-------8-----8-----8-----|
----------------(9)-9---------------------------------------|
------------------------------(9)---(9)---------------------|
------------------------------------------------------------|
------------------------------------------------------------|

VERSE 1:
G     Cadd9 G               Cadd9
Hello there how was your da-ay
G	         Cadd9 C
i'm sorry that I was a-way
G     Cadd9 G              Cadd9
hello there how is the wea-ther
G	          Cadd9        C
I'm sorry I'm not there to pla-ay

PRE-CHORUS 1:
Am		   Em          D       C
I'm trying just to make it bet-ter for you
		   Em    D
I know its hard to under-stand

CHORUS:
G           Em
la la la la la I'm always gonna
C                                   D
Love you......I promise you, I prom-ise
G           Em
la la la la la I'm always thinking
C                                 D
of you......I promise you, I prom-ise

Em...D...C

VERSE 2:
G     Cadd9  G               Cadd9
Hello there, why are you cry-ing
G		  Cadd9	     C
I know that your trying your best
G     Cadd9 G              Cadd9
To be good now for your mo-ther
G		  Cadd9	   C
Hold her and tell her were gonna be okay
[ Tab from: http://www.guitartabs.cc/tabs/l/lit/lullaby_tab.html ]
PRE-CHORUS 2:
Am		 Em	  D	     C
I never meant to make you feel so ba-ad
		      Em    D
I hope someday you'll under-stand

CHORUS:
G            Em
la la la la la I'm always gonna
C                                 D
Love you....I promise you, I prom-ise
G            Em
La la la la la I'm always thinking
C                                D
Of you.....I promise you, I prom-ise

SOLO (with strummed chords):

Em   D     C   Em    D   C   Em      D     C
--------------------------------------------------|
5/8--7-8-7-5---3h5p3-1-0-1~~-5p3h5-7h8p7-5-7-8-5~-|
--------------------------------------------------|
--------------------------------------------------|
--------------------------------------------------|
--------------------------------------------------|

Em    D       C
-----------------------------------|
-----------------------------------|
-----------------------------------|
5-4-2-5--4--2-5~4/2~0h2-0----------|
--------------------------3-2h3p2--|
-----------------------------------|

PRE-CHORUS 3:
Am		  Em       D        C
I swear I'm gonna make it up to you and
                      Em    D
I know someday you'll under-stand

CHORUS:
G           Em
la la la la la I'm always gonna
C                                   D
Love you......I promise you, I prom-ise
G            Em
la la la la la I'm always thinking
C                                 D
of you......I promise you, I prom-ise

OUTRO:
G 	    Em
la la la la la do do do do do do
C                   D
I promise you I prom-ise
G	     Em               C
la la la la la do do do do do do

G

PIANO OUTRO:

3---5---7-8-10----- 10-8-7-8-7--------(8)---8-7---8-7---8-7-|
3-3---3-------(8)---8-----------(8)-------8-----8-----8-----|
----------------(9)-9---------------------------------------|
------------------------------(9)---(9)---------------------|
------------------------------------------------------------|
------------------------------------------------------------|
Comments