Lit - Lovely Day Chords & Tabs

 

Lovely Day Chords & Tabs

Lit Chords & Tabs

Version: 2 Type: Tab 0 ratings
1 star 2 stars 3 stars 4 stars 5 stars
comments

Lovely Day Tab

#----------------------------------PLEASE NOTE---------------------------------#
#This file is the author's own work and represents their interpretation of the #
#song. You may only use this file for private study, scholarship, or research. #
#------------------------------------------------------------------------------##

"lovely day"__________________________________________________________________ _________________intro:___________________________________________

---------------------------------------------------------------------------------
---------------------------------------------------------------------------------
---------------------------------------------------------------------------------
--9-9-9-9-9-9-9-9--7-7-7-7-7-7-7-7--5-5-5-5-5-5-5-5--7-7-7-7-7-7-7-7--
--9-9-9-9-9-9-9-9--7-7-7-7-7-7-7-7--5-5-5-5-5-5-5-5--7-7-7-7-7-7-7-7--
--7-7-7-7-7-7-7-7--5-5-5-5-5-5-5-5--3-3-3-3-3-3-3-3--5-5-5-5-5-5-5-5--

______________________________________________________________________________ _________________verses:__________________________________________
[ Tab from: http://www.guitartabs.cc/tabs/l/lit/lovely_day_tab_ver_2.html ]
------------------------------------------------------------------------------------------------------------------------------------------------
------------------------------------------------------------------------------------------------------------------------------------------------
-----------------------9--7-----------------------9--7------------------------------------------------------------------------------------------
--9-9-9-9-9-9--7-7--9--7---9-9-9-9-9-9--7-7--9--7---9-9-9-9-9-9-9-9--7-7-7-7-7-7-7-7--5-5-5-5-5-5-5-5-5-5-5-5-5-5-----------------
--9-9-9-9-9-9--7-7--7--5---9-9-9-9-9-9--7-7--7--5---9-9-9-9-9-9-9-9--7-7-7-7-7-7-7-7--5-5-5-5-5-5-5-5-5-5-5-5-5-5-----------------
--7-7-7-7-7-7--5-5----------7-7-7-7-7-7--5-5---------7-7-7-7-7-7-7-7--5-5-5-5-5-5-5-5--3-3-3-3-3-3-3-3-3-3-3-3-3-3----------------

______________________________________________________________________________ _________________chorus:__________________________________________
--------------------------------------------------------------------------
--------------------------------------------------------------------------
--------------------------------------------------------------------------
--9-9-9-9-9--7-7-7-7-7--5--5--5--5--5--5--5--5----------------------
--9-9-9-9-9--7-7-7-7-7--5--5--5--5--5--5--5--5----------------------
--7-7-7-7-7--5-5-5-5-5--3--3--3--3--3--3--3--3----------------------
Comments