Lit - Lovely Day Chords & Tabs

 

Lovely Day Chords & Tabs

Lit Chords & Tabs

Version: 1 Type: Tab 0 ratings
1 star 2 stars 3 stars 4 stars 5 stars
comments

Lovely Day Tab

Lovely Day Lit

Intro

------------------------------------------------------------ | 
------------------------------------------------------------ | 
--11---11---8------11---11---8---4-------------------------- | 
--11---11---8------11---11---8---4-------------------------- | 
--9----8----6------9----8----6---2-------------------------- | 
------------------------------------------------------------ |

---------------------11--9------6------18------------------- |
------11------12-------------------------------------------- | 
--11------11-----11----------------------------------------- | 
------------------------------------------------------------ | 
------------------------------------------------------------ | 
------------------------------------------------------------ |

Verse

------------------------------ |
------------------------------ | 
------6---4------------------- | 
--4---6---4------7---2-------- | 
--4---4---2------7---2-------- | 
--2--------------5---0-------- | 

Shake it up and throw it
Roll it up and smoke it
No one knows what it’s worth or
Where it’s going
Tired moneymakers
Boring conversators, keep it up
We all know where you blow it

Bridge
[ Tab from: http://www.guitartabs.cc/tabs/l/lit/lovely_day_tab.html ]
------------------------------------ |
------------------------------------ | 
------7-----------------4---2---3--- | 
------7---7---5---------4---2---3--- | 
------5---7---5---------2---0---1--- | 
----------5---3--------------------- | 

And now I live in a world
That I call my own
It’s always nice
When no one’s home
Give it a time and place 
If you don’t ask what it’s for

Chorus

---------------------------------------------------------- |
---------------------------------------------------------- | 
--8------------------8---10------------------------------- | 
--8---3---8---5------8---10------------------------------- | 
--6---3---8---5------6---8-------------------------------- | 
------1---6---3------------------------------------------- | 

It’s another world
But it’s something more than ordinary
Such a lovely day
And it’s nothing more than ordinary living
That you’re living

Waking up and rollin’
Loadedup and flowing
Creeping out, we all know
Where you’re going
trying to ignore it
What you’re looking for and no one knows
What its worth, where it’s going

And now I live in a world 
That I call my own
It’s always nice
When no one’s home
Give it a time and place
If you don’t ask what it’s for

It’s another world
But it’s something more than ordinary
Such a lovely day
And it’s nothing more than ordinary living
That you’re living
Comments