Lit - Looks Like They Were Right Chords & Tabs

 

Looks Like They Were Right Chords & Tabs

Lit Chords & Tabs

Version: 2 Type: Tab 0 ratings
1 star 2 stars 3 stars 4 stars 5 stars
comments

Looks Like They Were Right Tab

Lit - Looks Like They Were Right

awesome song right here... that's all i can say. the tab is in order from top to bottom
so just read through the whole thing. no shenanigans.

key:
 
 .  - palm mute
 x  - mute note
 h  - hammer on
 p  - pull off
 ~  - let it ring
x\x - pickslide


that's all you need to know for this tab
 
----------------------------------------------------------------------------
Guitar 1 (their only guitarist)
----------------------------------------------------------------------------

intro

E|-----------------------------------|
B|--5-5-5-5-5-5-55--x4-4-4-4-4-4-44--|
G|--5-5-5-5-5-5-55--x5-5-5-5-5-5-55--|
D|-----------------------------------|
A|-----------------------------------| (x1)
D|-----------------------------------|

E|-----------------------------------|
B|--x5-5-5-5-5-5-55--x4-4-4-4-4------|
G|--x5-5-5-5-5-5-55--x5-5-5-5-5-x\x--|
D|------------------------------x\x--|
A|------------------------------x\x--| (x1)
D|-----------------------------------|

E|---------------------------------------------------|
B|---------------------------------------------------|
G|--5x-5x-5x-5x-5x-5x-5x-5x--------------------------|
D|--5x-5x-5x-5x-5x-5x-5x-5x--6x-6x-6x-6x-6x-6x-6-5~--|
A|--3x-3x-3x-3x-3x-3x-3x-3x--6x-6x-6x-6x-6x-6x-6-5~--| (x2)
D|---------------------------6x-6x-6x-6x-6x-6x-6-5~--|

verse

E|----------------------------------------------------|
B|----------------------------------------------------|
G|--5x-5x-5x-5x-5x-5x-5x-5x---------------------------|
D|--5x-5x-5x-5x-5x-5x-5x-5x--6x-6x-6x-6x-6x-6x-6x-6x--|
A|--3x-3x-3x-3x-3x-3x-3x-3x--6x-6x-6x-6x-6x-6x-6x-6x--| (x1)
D|---------------------------6x-6x-6x-6x-6x-6x-6x-6x--|
    .  .  .  .  .  .  .  .   .  .  .  .  .  .  .  .

E|---------------------------------------------------|
B|---------------------------------------------------|
G|--5x-5x-5x-5x-5x-5x-5x-5x--------------------------|
D|--5x-5x-5x-5x-5x-5x-5x-5x--6x-6x-6x-6x-6x-6x-6-5~--|
A|--3x-3x-3x-3x-3x-3x-3x-3x--6x-6x-6x-6x-6x-6x-6-5~--| (x1)
D|---------------------------6x-6x-6x-6x-6x-6x-6-5~--|
    .  .  .  .  .  .  .  .   .  .  .  .  .  . 

E|----------------------------------------------------|
B|----------------------------------------------------|
G|--5x-5x-5x-5x-5x-5x-5x-5x---------------------------|
D|--5x-5x-5x-5x-5x-5x-5x-5x--6x-6x-6x-6x-6x-6x-6x-6x--|
A|--3x-3x-3x-3x-3x-3x-3x-3x--6x-6x-6x-6x-6x-6x-6x-6x--| (x1)
D|---------------------------6x-6x-6x-6x-6x-6x-6x-6x--|
    .  .  .  .  .  .  .  .   .  .  .  .  .  .  .  .

E|--------------------------------------------------|
B|--------------------------------------------------|
G|--5x-5x-5x-5x-5x-5x-5x-5x-------------------------|
D|--5x-5x-5x-5x-5x-5x-5x-5x--6x-6x-6x-6x-6x-6x-x\x--|
A|--3x-3x-3x-3x-3x-3x-3x-3x--6x-6x-6x-6x-6x-6x-x\x--| (x1)
D|---------------------------6x-6x-6x-6x-6x-6x-x\x--|
    .  .  .  .  .  .  

chorus

E|--------------------------|
B|--------------------------|
G|--------------5--4--2-----|
D|--3--3--5--5--5--4--2--5--|
A|--3--3--5--5--3--2--0--5--| (x2)
D|--3--3--5--5-----------5--|

E|-------------------------------|
B|-------------------------------|
G|-------------------------------|
D|--3x-3x-3x-3x-3x-3x-3x-3x--5~--|
A|--3x-3x-3x-3x-3x-3x-3x-3x--5~--| (x1)
D|--3x-3x-3x-3x-3x-3x-3x-3x--5~--|

post-chorus

E|-----------------------------------|
B|--5-5-5-5-5-5-55--x4-4-4-4-4-4-44--|
G|--5-5-5-5-5-5-55--x5-5-5-5-5-5-55--|
D|-----------------------------------|
A|-----------------------------------| (x1)
D|-----------------------------------|

E|-----------------------------------|
B|--x5-5-5-5-5-5-55--x4-4-4-4-4------|
G|--x5-5-5-5-5-5-55--x5-5-5-5-5-x\x--|
D|------------------------------x\x--|
A|------------------------------x\x--| (x1)
D|-----------------------------------|

verse

E|----------------------------------------------------|
B|----------------------------------------------------|
G|--5x-5x-5x-5x-5x-5x-5x-5x---------------------------|
D|--5x-5x-5x-5x-5x-5x-5x-5x--6x-6x-6x-6x-6x-6x-6x-6x--|
A|--3x-3x-3x-3x-3x-3x-3x-3x--6x-6x-6x-6x-6x-6x-6x-6x--| (x1)
D|---------------------------6x-6x-6x-6x-6x-6x-6x-6x--|


E|---------------------------------------------------|
B|---------------------------------------------------|
G|--5x-5x-5x-5x-5x-5x-5x-5x--------------------------|
D|--5x-5x-5x-5x-5x-5x-5x-5x--6x-6x-6x-6x-6x-6x-6-5~--|
A|--3x-3x-3x-3x-3x-3x-3x-3x--6x-6x-6x-6x-6x-6x-6-5~--| (x1)
D|---------------------------6x-6x-6x-6x-6x-6x-6-5~--|


E|----------------------------------------------------|
B|----------------------------------------------------|
G|--5x-5x-5x-5x-5x-5x-5x-5x---------------------------|
D|--5x-5x-5x-5x-5x-5x-5x-5x--6x-6x-6x-6x-6x-6x-6x-6x--|
A|--3x-3x-3x-3x-3x-3x-3x-3x--6x-6x-6x-6x-6x-6x-6x-6x--| (x1)
D|---------------------------6x-6x-6x-6x-6x-6x-6x-6x--|

[ Tab from: http://www.guitartabs.cc/tabs/l/lit/looks_like_they_were_right_tab_ver_2.html ]
E|--------------------------------------------------|
B|--------------------------------------------------|
G|--5x-5x-5x-5x-5x-5x-5x-5x-------------------------|
D|--5x-5x-5x-5x-5x-5x-5x-5x--6x-6x-6x-6x-6x-6x-x\x--|
A|--3x-3x-3x-3x-3x-3x-3x-3x--6x-6x-6x-6x-6x-6x-x\x--| (x1)
D|---------------------------6x-6x-6x-6x-6x-6x-x\x--|


chorus

E|--------------------------|
B|--------------------------|
G|--------------5--4--2-----|
D|--3--3--5--5--5--4--2--5--|
A|--3--3--5--5--3--2--0--5--| (x2)
D|--3--3--5--5-----------5--|

E|----------------------------------------------------|
B|----------------------------------------------------|
G|----------------------------------------------------|
D|--3x-3x-3x-3x-3x-3x-3x-3x--5x-5x-5x-5x-5x-5x-5x-5x--|
A|--3x-3x-3x-3x-3x-3x-3x-3x--5x-5x-5x-5x-5x-5x-5x-5x--| (x1)
D|--3x-3x-3x-3x-3x-3x-3x-3x--5x-5x-5x-5x-5x-5x-5x-5x--|

solo

E|---------------------------------------------------------|
B|---------------------------------------------------------|
G|--5-5-5/7/9\7--7-7/9/10\9--9-9-9--121212121212-14-12-10--|
D|--x-x-x/x/x\x--x-x/x/-x\x--x-x-x---x-x-x-x-x-x--x--x--x--|
A|--3-3-3/5/7\5--5-5/7/-8\7--7-7-7--101010101010-12-10--8--| (x1)
D|---------------------------------------------------------|

E|---------------------------------------------------------|
B|---------------------------------------------------------|
G|--5-5-5/7/9\7--7-7/9/10\9--9v-9v--121212121212-14-12-10--|
D|--x-x-x/x/x\x--x-x/x/-x\x--x--x----x-x-x-x-x-x--x--x--x--|
A|--3-3-3/5/7\5--5-5/7/-8\7--7v-7v--101010101010-12-10--8--| (x1)
D|---------------------------------------------------------|

E|-------------------------|
B|-------------------------|
G|--10-10-10-10-12-12-x\x--|
D|---x--x--x--x--x--x-x\x--| 
A|---8--8--8--8-10-10-x\x--| (x1)
D|-------------------------|

bridge

E|--------------------------------------|
B|--------------------------------------|
G|--------------------------------------|
D|--6-6-6-6-6-6-6-6--1-1-1-1--3-3-3/5~--|
A|--6-6-6-6-6-6-6-6--1-1-1-1--3-3-3/5~--| (x3)
D|--6-6-6-6-6-6-6-6--1-1-1-1--3-3-3/5~--|

E|----------------------------------------|
B|----------------------------------------|
G|----------------------------------------|
D|--6-6-6-6-6-6-6-6--5-5-5-5-5-5-5-5--5~--|
A|--6-6-6-6-6-6-6-6--5-5-5-5-5-5-5-5--5~--| (x1)
D|--6-6-6-6-6-6-6-6--5-5-5-5-5-5-5-5--5~--|

verse

E|----------------------------------------------------|
B|----------------------------------------------------|
G|--5x-5x-5x-5x-5x-5x-5x-5x---------------------------|
D|--5x-5x-5x-5x-5x-5x-5x-5x--6x-6x-6x-6x-6x-6x-6x-6x--|
A|--3x-3x-3x-3x-3x-3x-3x-3x--6x-6x-6x-6x-6x-6x-6x-6x--| (x1)
D|---------------------------6x-6x-6x-6x-6x-6x-6x-6x--|
    .  .  .  .  .  .  .  .   .  .  .  .  .  .  .  .

E|-------------------------------|
B|-------------------------------|
G|--5x-5x-5x-5x-5x-5x-5x-5x------|
D|--5x-5x-5x-5x-5x-5x-5x-5x--6~--|
A|--3x-3x-3x-3x-3x-3x-3x-3x--6~--| (x1)
D|---------------------------6~--|
    .  .  .  .  .  .  .  .   

chorus

E|--------------------------|
B|--------------------------|
G|--------------5--4--2-----|
D|--3--3--5--5--5--4--2--5--|
A|--3--3--5--5--3--2--0--5--| (x2)
D|--3--3--5--5-----------5--|

E|--------------------------------------------------|
B|--------------------------------------------------|
G|--------------------------------------------------|
D|--3x-3x-3x-3x-3x-3x-3x-3x--5x-5x-5x-5x-5x-5x-x\x--|
A|--3x-3x-3x-3x-3x-3x-3x-3x--5x-5x-5x-5x-5x-5x-x\x--| (x1)
D|--3x-3x-3x-3x-3x-3x-3x-3x--5x-5x-5x-5x-5x-5x-x\x--|

E|---------------------------------------------------------|
B|---------------------------------------------------------|
G|--5-5-5/7/9\7--7-7/9/10\9--9-9-9--121212121212-14-12-10--|
D|--x-x-x/x/x\x--x-x/x/-x\x--x-x-x---x-x-x-x-x-x--x--x--x--|
A|--3-3-3/5/7\5--5-5/7/-8\7--7-7-7--101010101010-12-10--8--| (x1)
D|---------------------------------------------------------|

E|---------------------------------------------------------|
B|---------------------------------------------------------|
G|--5-5-5/7/9\7--7-7/9/10\9--9v-9v--121212121212-14-12-10--|
D|--x-x-x/x/x\x--x-x/x/-x\x--x--x----x-x-x-x-x-x--x--x--x--|
A|--3-3-3/5/7\5--5-5/7/-8\7--7v-7v--101010101010-12-10--8--| (x1)
D|---------------------------------------------------------|

E|-------------------------------|
B|-------------------------------|
G|--10-10-10-10-10-10-10-10------|
D|---x--x--x--x--x--x--x--x--5~--| 
A|---8--8--8--8--8--8--8--8--5~--| (x1)
D|---------------------------5~--|

outro

E|-----------------------------------|
B|--5-5-5-5-5-5-55--x4-4-4-4-4-4-44--|
G|--5-5-5-5-5-5-55--x5-5-5-5-5-5-55--|
D|-----------------------------------|
A|-----------------------------------| (x1)
D|-----------------------------------|

E|-----------------------------------|
B|--x5-5-5-5-5-5-55--x4-4-4-4--------|
G|--x5-5-5-5-5-5-55--x5-5-5-5-7-5-4--|
D|--------------------------5-5-5-5--|
A|-----------------------------------| (x1)
D|-----------------------------------|


there you go... i'm not 100% sure of the outro... but i'm positive that the rest of the
song is absolutely correct. if you have any comments or questions you can e-mail me at
killinginthename247@yahoo.com
Comments