Lit - Looks Like They Were Right Chords & Tabs

 

Looks Like They Were Right Chords & Tabs

Lit Chords & Tabs

Version: 1 Type: Tab 0 ratings
1 star 2 stars 3 stars 4 stars 5 stars
comments

Looks Like They Were Right Tab

   
Intro is alright not 100% sure but...

Intro

E-----------------------------------|
B-4-4-4-4-4-4-4-4-3-3-3-3-3-3-3-----|
G-5-5-5-5-5-5-5-5-5-5-5-5-5-5-5-----|
D-----------------------------------|     2X THEN...
A-----------------------------------|
E-----------------------------------|

Verse and last part of intro

E-------------------------------|
B-------------------------------|
G-5-5-5-5-5-5-5-5---------------|
D-5-5-5-5-5-5-5-5-6-6-6-6-6-6-5-|
A-3-3-3-3-3-3-3-3-6-6-6-6-6-6-5-|
E-----------------4-4-4-4-4-4-3-|

Chours (Looks Like They were right again...)
[ Tab from: http://www.guitartabs.cc/tabs/l/lit/looks_like_they_were_right_tab.html ]
E-------------------------|
B-------------------------|
G---------5-5-4-4-2-2-----|
D-3-3-5-5-5-5-4-4-2-2-5-5-|
A-3-3-5-5-3-3-2-2-0-0-5-5-|
E-1-1-3-3-------------3-3-|

Solo

E-------------------------------------|
B-------------------------------------|
G---------------------0-0-0-2-2-0-2-0-|
D-------0-2-0-0-0-2-3-----------------|
A-3-3-3-------------------------------|
E-------------------------------------|

Then the changeup thingy

E---------------------------------|
B---------------------------------|
G-----------------8-8-8-8---------|
D-6-6-6-6-6-6-6-6-8-8-8-8-3-3-3-5-|   2x then figure out strumming
A-6-6-6-6-6-6-6-6-6-6-6-6-3-3-3-5-|
E-4-4-4-4-4-4-4-4---------1-1-1-3-|

THATS BASICALLY IT

EMAIL ME AND TELL ME IF U LIKE IT OR NOT=JRODD@HOTMAIL.COM

LIT ROCKS!!!
Comments