Lit - Looks Like They Were Right Chords & Tabs

 

Looks Like They Were Right Chords & Tabs

Lit Chords & Tabs

Version: 2 Type: Bass Tab 0 ratings
1 star 2 stars 3 stars 4 stars 5 stars
comments

Looks Like They Were Right Bass Tab

Lit - Looks Like They Were Right

awesome song right here... that's all i can say. the tab is in order from top to
bottom so just read through the whole thing. no shenanigans.

standard tuning (i think)

key:

 / - slide up
 \ - slide down
 x - mute note
 h - hammer on
 p - pull-off
 ~ - let note ring

that's all you need to know for this tab

-------------------------------------------------------------------------------

intro

G|--------------------------------------------------|
D|--------------------------------------------------|
A|----5-3---3-3-3-3-3-3-3---3--3-3-3-3-3-3---1-2-3--| (x1)
E|--3---------------------3----------------3--------|

G|-------------------5--------------------|
D|----------------5-------------/5-4-3-1--|
A|--3-3-3-3-3-3-3---3---3-3-3-3-----------| (x1)
E|----------------------------------------|

G|---------------------------------------------------|
D|---------------------------------------------------|
A|--3x-3x-3x-3x-3x-3x-3x-3x--------------------------| (x2)
E|---------------------------4x-4x-4x-4x-4x-4x-4-3~--|

verse

G|--------------------------------------------------------------------|
D|--------------------------------------------------------------------|
A|--3-3-3-3-3-3-3-3-------------------3-3-3-3-3-3-3-3-----------------| (x2)
E|-------------------4-4-4-4-4-4-4-4------------------4-4-4-4-4-4-3~--|

chorus

G|----------------------------------------------------|
D|----------------------------------------------------|
A|--------------3--2--0-------------------3--2--0-----| (x1)
E|--1--1--3--3-----------3----1--1--3--3-----------3--|

G|----------------------|
D|----------------------|
A|----------------------| (x1)
E|--1-1-1-1-1-1-1-1-3~--|

post-chorus

G|--------------------------------------------|
D|--------------------------------------------|
A|--3-3-3-3-3-3-3-3---3--3-3-3-3-3-3---1-2-3--| (x1)
E|------------------3----------------3--------|

G|-------------------5-----------------------------|
D|----------------5-------------/555-4444-333-111--|
A|--3-3-3-3-3-3-3---3---3-3-3-3--------------------| (x1)
E|-------------------------------------------------|

verse

G|--------------------------------------------------------------------|
D|--------------------------------------------------------------------|
A|--3-3-3-3-3-3-3-3-------------------3-3-3-3-3-3-3-3-----------------| (x2)
E|-------------------4-4-4-4-4-4-4-4------------------4-4-4-4-4-4-3~--|

chorus
[ Tab from: http://www.guitartabs.cc/tabs/l/lit/looks_like_they_were_right_btab_ver_2.html ]
G|----------------------------------------------------|
D|----------------------------------------------------|
A|--------------3--2--0-------------------3--2--0-----| (x1)
E|--1--1--3--3-----------3----1--1--3--3-----------3--|

G|------------------------------------|
D|------------------------------------|
A|------------------------------------| (x1)
E|--1-1-1-1-1-1-1-1--3-3-3-3-3-3-3-3--|

solo

G|----------------------------------------|
D|----------------------------------------|
A|--------------------3-3--2-2--0-0-------| (x2)
E|--1-1-1-1--3-3-3-3-----------------3-3--|

G|--------------------|
D|--------------------|
A|--------------------| (x1)
E|--1-1-1-1--3-3-3-3--|

bridge kinda part

G|--------------------------------------|
D|--------------------------------------|
A|-------------------6-6-6-6------------| (x3)
E|--4-4-4-4-4-4-4-4-----------1-1-1/3~--|

G|----------------------------------------|
D|----------------------------------------|
A|----------------------------------------| (x1)
E|--4-4-4-4-4-4-4-4--3-3-3-3-3-3-3-3--3~--|

break

then chorus

G|----------------------------------------------------|
D|----------------------------------------------------|
A|--------------3--2--0-------------------3--2--0-----| (x1)
E|--1--1--3--3-----------3----1--1--3--3-----------3--|

G|------------------------------------|
D|------------------------------------|
A|------------------------------------| (x1)
E|--1-1-1-1-1-1-1-1--3-3-3-3-3-3-3-3--|

G|----------------------------------------|
D|----------------------------------------|
A|--------------------3-3--2-2--0-0-------| (x2)
E|--1-1-1-1--3-3-3-3-----------------3-3--|

G|-----------------------|
D|-----------------------|
A|-----------------------| (x1)
E|--1-1-1-1-1-1-1-1--3~--|

outro

G|-----------------------|
D|-----------------------|
A|--3-3-3-3-3-3-3-3---3--| (x1)
E|------------------3----|

G|---------------------|
D|---------------------|
A|--3-3-3-3-3-3-3---3--| (x2)
E|----------------3----|

G|-----------------------|
D|------------1-3-1-3-1--|
A|--3-3-3-3-3------------| (x1)
E|-----------------------|

G|-------------------------|
D|-------------------------|
A|--3-3-3-3-3-3-3---1-2-3--| (x1)
E|----------------3--------|

G|---------------------|
D|---------------------|
A|--3-3-3-3-3-3-3-3----| (x1)
E|------------------3--|

G|----------------------------------------------------3-------5--------|
D|----5---5--6-5\3-1-----------1---1h3p1----1-3-(3)/5---5-4-3---3---1--|
A|--3---3------------3~--1-2-3---3--------3-----------------------3----| (x1) 
E|---------------------------------------------------------------------|

end on

G|-------|
D|-------|
A|--3-1--| (x1)
E|-------|


there you go... i also made the 2nd version guitar tab for this song so check that out
too. if you have any comments or questions you can e-mail me at killinginthename247@yahoo.com
Comments