Lit - Looks Like They Were Right Chords & Tabs

 

Looks Like They Were Right Chords & Tabs

Lit Chords & Tabs

Version: 1 Type: Bass Tab 0 ratings
1 star 2 stars 3 stars 4 stars 5 stars
comments

Looks Like They Were Right Bass Tab

Song:Looks Like They Were Right
Band:Lit
Album:Lit
Tuning:Standard
Bassist:Kevin Baldes
Tabbed By:Kyle-BNIrockZ(Mestupkid2791@aol.com)

~ = Ring out

I worked hard on this tab and im 98.9% sure it is correct.If you find that
a number isn't written enough times just play it, because I know some
numbers are off by a few strums. Enjoy!
Intro:(0:00)
G----------------------------------------5-----------|
D--------------------------------------5------5-4-3--|
A--3--33333333---------1-2-3-33333333-3-3----------6-|
E-4-4---------4444444-3-------------------4444-------|

G----------------------------------------------------|
D----------------------------------------------------|
A-33333333-----------33333333------------------------|
E---------44444444-3---------44444444-3--------------|

Verse(x2):(0:26)
G--------------------------------------------------------------|
D--------------------------------------------------------------|
A-3-3-3-3-3-3-3-3---------------3-3-3-3-3-3-3-3----------------|
E----------------4-4-4-4-4-4-4-4---------------4-4-4-4-4-4-4-3-|

Chrous:(0:48)
G------------------    |--------------------------------------|
D------------------    |--------------------------------------|
A-------3-2-0------(x2)|--------------------------------------|
E-1--3--------3----    |1-1-1-1-1-1-1-1--3~-------------------|

Intro:(1:06)
G----------------------------------------5-----------|
D--------------------------------------5------5-4-3--|
A--3--33333333---------1-2-3-33333333-3-3----------6-|
E-4-4---------4444444-3-------------------4444-------|
[ Tab from: http://www.guitartabs.cc/tabs/l/lit/looks_like_they_were_right_btab.html ]
Verse(x2):(1:18)
G--------------------------------------------------------------|
D--------------------------------------------------------------|
A-3-3-3-3-3-3-3-3---------------3-3-3-3-3-3-3-3----------------|
E----------------4-4-4-4-4-4-4-4---------------4-4-4-4-4-4-4-3-|

Chrous:(1:41)
G------------------    |--------------------------------------|
D------------------    |--------------------------------------|
A-------3-2-0------(x2)|--------------------------------------|
E-1--3--------3----    |1-1-1-1-1-1-1-1-3-3-3-3-3-3-3-3-------|

G------------------------------------------------|
D------------------------------------------------|
A----------33-22-00--------33-22-00--------------|
E-1-1--3-3----------33-1-2----------33-1111-3333-|

Bridge:(2:13)
G---------------------------------    |---------------------------|
D---------------------------------    |---------------------------|
A-----------------6-6-6-6---------(x3)|---------------------------|
E-4-4-4-4-4-4-4-4---------1--1-3--    |4~------3~--------------3~-|

(Guitar Solo)-(2:39)

Chorus:(2:53)
G------------------    |--------------------------------------|
D------------------    |--------------------------------------|
A-------3-2-0------(x2)|--------------------------------------|
E-1--3--------3----    |1-1-1-1-1-1-1-1-3-3-3-3-3-3-3-3-------|

G-------------------------------------------------------|
D-------------------------------------------------------|
A----------33-22-00-------------33-22-00----------------|
E-1-1--3-3----------33-1-1--3-3----------33-11111111-3~-|

Outro:(3:28)
G-------------------------------------------------------|
D-------------------------------------------------------|
A-33333333--------33333333--------3333333-1-2-3-3333333-|
E---------4444444---------4444444-----------------------|

Bass Outro:(3:45)
G--------------------------------------3-------5---------|
D--5-5-6-5-3-----------1-1/3-1--1-3-3/5-5-4-3-3-3--------|
A-3-3--------6-3~--123--3------3-----------------3-6--31-|
E--------------------------------------------------------|
Comments