Lit - Lipstick And Bruises Chords & Tabs

 

Lipstick And Bruises Chords & Tabs

Lit Chords & Tabs

Version: 6 Type: Tab 0 ratings
1 star 2 stars 3 stars 4 stars 5 stars
comments

Lipstick And Bruises Tab

tuned 1/2 step down  v=vibrato bu[x]=bend up 
bd[x]=bring down
----------------------------------------
----------------------------------------
----------------------v77v6-------------
--5-77-5-77-5-77-5-77-------------------
--0-00-0-00-0-00-0-00-------------------
----------------------------------------

verse
---------------------------------------
---------------------------------------
----------------------v77v6------------
-5-77-5-[7-let ring]-------------------
-0-00-0-[0-let ring]-------------------
---------------------------------------
[ Tab from: http://www.guitartabs.cc/tabs/l/lit/lipstick_and_bruises_tab_ver_6.html ]
short bridge part
---------------------play that like 4 times
-333-333-------------
-222-333-------------
-000-000-------------
---------------------
---------------------

chorus
--------------------------
--------------------------
-------543-33-333---------
-33-33-543-33-333---------
-33-33-321-11-111---------
-11-11--------------------

solo
---------------------------------------------
---------------------------------------------
----------------------------------7bu9bd7p6--
-5-77-5-v7let ring]-5-77-5-v7let ring]-------
---------------------------------------------
---------------------------------------------
the solo is easy to learn but i dont think i tabbed
it exactly right. every thing else, im almost
positive, is right
Comments