Lit - Lipstick And Bruises Chords & Tabs

 

Lipstick And Bruises Chords & Tabs

Lit Chords & Tabs

Version: 5 Type: Tab 0 ratings
1 star 2 stars 3 stars 4 stars 5 stars
comments

Lipstick And Bruises Tab

Song: Lipstick & Bruises
Artist: Lit
Album: Atomic
Tabbed by: Jon “Mr.Big” Makokis
Email: metallikop25@hotmail.com

This is the brand new song by Lit, it’s a good one, and it’s easy.  
Here’s how I play it, it’s close.  Just listen to the song and you’ll 
definitely get it.

Intro:x4                           4th time 
e|-----------------------|---------|------|
B|-----------------------|---------|------|
G|-----------------------|--66-5~--|--6^--|
D|--4/66-4/66-4/66-4/66--|---------|------|
A|--4/66-4/66-4/66-4/66--|---------|------|
E|--2/44-2/44-2/44-2/44--|---------|------|

Verse:x4(4th time play Intro riff)
e|---------------------|
B|---------------------|
G|--------------6~-5~--|
D|--4/66-4/6~----------|
A|--4/66-4/6~----------|
E|--2/44-2/4~----------|

Pre-Chorus:x3
e|---------------------|
B|---------------------|
G|--66666666-----------|
D|--66666666-77777777--|
A|--44444444-77777777--|
E|-----------55555555--|
[ Tab from: http://www.guitartabs.cc/tabs/l/lit/lipstick_and_bruises_tab_ver_5.html ]
Chorus:x4
e|----------------------|
B|----------------------|
G|----------------------|
D|--2-22--9\8\7--7-77\--|
A|--2-22--9\8\7--7-77\--|
E|--0-00--7\6\5--5-55\--|

Intro:x2

Verse:x4

Pre-Chorus:x3

Chorus:x4

Solo:
e|----------------------------------------------------|
B|----------------------------------------------------|
G|--------------6~-5~-------------6~-5~-6^6-5-6^6-5~--|
D|--4/66-4/6~---------4/66-4-6~-----------------------|
A|--4/66-4/6~---------4/66-4--------------------------|
E|--2/44-2/4~---------2/44-2--------------------------|

Intro:x1

Pre-Chorus:x4(4th time play Palm Muted)

Chorus:x8

Intro:x4

End:x1
e|--------------------------------------------------------|
B|--------------------------------------------------------|
G|-------------------------------------------------66-5~--|
D|--4/66-4/66-4/66-4/66-4/66-4/66-4/66-4/66-4/66-4--------|
A|--4/66-4/66-4/66-4/66-4/66-4/66-4/66-4/66-4/66-4--------|
E|--2/44-2/44-2/44-2/44-2/44-2/44-2/44-2/44-2/44-2--------|
Comments