Lit - Lipstick And Bruises Chords & Tabs

 

Lipstick And Bruises Chords & Tabs

Lit Chords & Tabs

Version: 2 Type: Tab 0 ratings
1 star 2 stars 3 stars 4 stars 5 stars
comments

Lipstick And Bruises Tab

This is 100% RIGHT!!!!!!!



----------------------------------------------------------------------
----------------------------------------------------------------------
-----2-2---2-2---2-2---2-2---7-7-6------------------------------------------------
-----2-2---2-2---2-2---2-2-----------7-7-7-7-7-7-7-7--8-8-8-8-8-8-8-8----------
-----0-0---0-0---0-0---0-0-----------5-5-5-5-5-5-5-5--5-5-5-5-5-5-5-5--------------------------
---3-----3-----3-----3--------------------------------6-6-6-6-6-6-6-6-------



   Then this.....
[ Tab from: http://www.guitartabs.cc/tabs/l/lit/lipstick_and_bruises_tab_ver_2.html ]
----------------------------------------------------------------------
----------------------------------------------------------------------
----------------------------------------------------------------------
---------5-4-3-3-3-3-------5-4-3-3-3-3--------------------------------
---3-3-3-3-2-1-1-1-1-3-3-3-3-2-1-1-1-1--------------------------------
---1-1-1-------------1-1-1--------------------------------------------

Then this.........


----------------------------------------------------------------------
----------------------------------------------------------------------
-----7-6---7-6-7-6-7-6-7-6-----------------------------------------
---7-----7-----------------7-----------------------------------------
----------------------------------------------------------------------
----------------------------------------------------------------------
Comments