Lit - Happy Chords & Tabs

 

Happy Chords & Tabs

Lit Chords & Tabs

Version: 1 Type: Bass Tab 0 ratings
1 star 2 stars 3 stars 4 stars 5 stars
comments

Happy Bass Tab

Happy by Lit
Transcribed by Jon Ritts (bigearl192000@yahoo.com)

If you have any corrections/questions, feel free to contact me.
This is a really fun song to play, so have a blast.

Tuned down 1/2 step (like most Lit songs)

Part A: (after four measures of guitar intro) (0:07)
Db|----2-----2-|----2---2---||
Ab|------------|------2---2-||
Eb|-0----0-0---|-0----------||

Part B: (0:11)
Db|-----------|-----------||
Ab|-2-2-2-2-0-|-2-2-2-2-0-||
Eb|-----------|-----------||

Repeat Part A again (0:14)
                              ______________________________
Part C: (0:18)               |1
Gb|-------------|------------|-------------|----------------|
Db|o------------|------------|-----2-0-2-0-|-4-2-0-2-0-2-0-o|
Ab|o-5-5--5-5-5-|------------|-------------|---------------o|
Eb|-------------|-5-5--5-5-5-|-3-----------|----------------|
   ___________________________________________________
  |2
Gb|-------------------------|-------------------------||
Db|-------------------------|-4-4-4-4-4-4-4-4-4-4-4-4-||
Ab|-------------------------|-------------------------||
Eb|-3-3-3-3-3-3-3-3-3-3-3-3-|-------------------------||

Play Part B (0:32), Part A (0:36), Part B (0:39), Part A (0:43), Part C (0:46)
with: ________________________________________________
  |2
Gb|-------------------------|-------------------------||
Db|-------------------------|-5-5-5-5-5-5-5-5-5-5-5-5-||
Ab|-------------------------|-------------------------||
Eb|-3-3-3-3-3-3-3-3-3-3-3-3-|-------------------------||
[ Tab from: http://www.guitartabs.cc/tabs/l/lit/happy_btab.html ]
Part D: (1:00)
Db|------------|------------|------------|---------------||
Ab|-3-3--3-3-3-|------------|------------|---------------||
Eb|------------|-1-1--1-1-1-|-3-3--3-3-3-|-1--1-1-3--3-3-|| (play twice)
                              __________________________________
Part E: (1:14)               |1
Gb|-------------|------------|-------------|------------/7-5-5--|
Db|o------------|------------|-------------|-----/5-3-3--------o|
Ab|o-1-1--1-1-1-|-1-1--1-1-1-|-------------|-------------------o|
Eb|-------------|------------|-1--1--1--1--|-1-1----------------|
   ___________________________________________________
  |2
Gb|-------------------------|-------------------------||
Db|-------------------------|-------------------------||
Ab|-------------------------|-------------------------||
Eb|-3-3-3-3-3-3-3-3-3-3-3-3-|-8-8-8-8-8-8-8-8-8-8-8-8-||
                              _____________________________
Part F: (1:29)               |1, 2
Gb|-------------|------------|------------|----------------|
Db|o------------|------------|------------|-----3---------o|
Ab|o------------|-3-3--3-3-3-|------------|-3-6---6-3-----o|
Eb|--4-4--4-4-4-|------------|-4-4--4-4-4-|-----------6-4--|
   __________________________________________________________
  |3
Gb|----------|---------|-------------|-------------|---------||
Db|----------|---------|-------------|-------------|---------||
Ab|-1--1---1-|-1---1---|-------------|-------------|---------||
Eb|----------|---------|-1-1-1-1-1-1-|-1-1-1-1-1-1-|-1/------||

Part G: (1:55)
Db|------------|------------|------------|---------------||
Ab|-6-6--6-6-6-|------------|------------|---------------||
Eb|------------|-4-4--4-4-4-|-6-6--6-6-6-|-4--4-4-6--6-6-|| (play twice)

Play Part D twice (2:10)

Part H: (2:24)
Db|---2-3-5-|---------|---------|-5-2-3---||
Ab|-3-------|---0-1-3-|---5-3-2-|-------5-||
Eb|---------|-1-------|-3-------|---------|| (play twice)

Ending:
Ab|-3------||
Eb|--------||

I had a little bit of trouble hearing some of the walks Kevin plays in
Part H, but I figured out something that's at least close. Let me know
if you figure out anything that seems more correct. Thanks.
Comments