Lit - Four Chords & Tabs

 

Four Chords & Tabs

Lit Chords & Tabs

Version: 6 Type: Tab 0 ratings
1 star 2 stars 3 stars 4 stars 5 stars
comments

Four Tab

----------------------------------------------------------------------------
	          Kiss me like you did - Lethal Attraction
----------------------------------------------------------------------------
Tabbed by: tadd
Email: taddhunter@yahoo.com

Tuning: standard

(lead guitar will be added later)

Verse
e|-------------------------------------------------------------------------|
B|------2-2---------------0-0----------------------------------------------|
G|------4-4----x4---------4-4----x4----------------------------------------|
D|-x-x--0-0----------x-x--2-2-----------------------------x4---------------|
A|-x-x---------------x-x---------------------------------------------------|
E|-------------------------------------------------------------------------|

Chorus (figure out the strumming yourself)
e|-0--0--------------------------------------------------------------------|
B|-0--0--------------------------------------------------------------------|
G|-8--8--------------------------------------------------------------------|
D|-6--7----------x4--------------------------------------------------------|
A|-7--0--------------------------------------------------------------------|
E|-0--0--------------------------------------------------------------------|

Verse
e|-------------------------------------------------------------------------|
B|------2-2---------------0-0----------------------------------------------|
G|------4-4----x4---------4-4----x4----------------------------------------|
D|-x-x--0-0----------x-x--2-2-----------------------------x4---------------|
A|-x-x---------------x-x---------------------------------------------------|
E|-------------------------------------------------------------------------|
[ Tab from: http://www.guitartabs.cc/tabs/l/lit/four_tab_ver_6.html ]
Chorus 
e|-0--0--------------------------------------------------------------------|
B|-0--0--------------------------------------------------------------------|
G|-8--8--------------------------------------------------------------------|
D|-6--7----------x4--------------------------------------------------------|
A|-7--0--------------------------------------------------------------------|
E|-0--0--------------------------------------------------------------------|

Bridge
e|-------------------------------------------------------------------------|
B|-------------------------------------------------------------------------|
G|-8-8-8-8---9-9-9-9---8-8-9-9---------------------------------------------|
D|-6-6-6-6---6-6-6-6---7-7-7-7-----------x2--------------------------------|
A|-7-7-7-7---7-7-7-7---0-0-0-0---------------------------------------------|
E|-0-0-0-0---0-0-0-0---0-0-0-0---------------------------------------------|

Breakdown
e|-------------------------------------------------------------------------|
B|-------------------------------------------------------------------------|
G|-x-8-x-8-x-8-x-8-x-9-x-9-x-9-x-9-x-8-x-8-x-8-x-8-x-8-x-8-x-8-x-8---------|
D|-x-6-x-6-x-6-x-6-x-6-x-6-x-6-x-6-x-7-x-7-x-7-x-7-x-9-x-9-x-9-x-9---------|
A|-x-7-x-7-x-7-x-7-x-7-x-7-x-7-x-7-x-0-x-0-x-0-x-0-x-0-x-0-x-0-x-0---------|
E|-x-0-x-0-x-0-x-0-x-0-x-0-x-0-x-0-x-0-x-0-x-0-x-0-x-0-x-0-x-0-x-0---------|

e|-------------------------------------------------------------------------|
B|-------------------------------------------------------------------x2----|
G|-x-8-x-8-x-8-x-8-x-9-x-9-x-9-x-9-x-8-x-8-x-8-x-8-x-9-x-9-x-9-x-9---------|
D|-x-6-x-6-x-6-x-6-x-6-x-6-x-6-x-6-x-7-x-7-x-7-x-7-x-7-x-7-x-7-x-7---------|
A|-x-7-x-7-x-7-x-7-x-7-x-7-x-7-x-7-x-0-x-0-x-0-x-0-x-0-x-0-x-0-x-0---------|
E|-x-0-x-0-x-0-x-0-x-0-x-0-x-0-x-0-x-0-x-0-x-0-x-0-x-0-x-0-x-0-x-0---------|

Verse
e|---------------------------------------------|------0--------------------|
B|------2-2---------------0-0------------------|----2-0--------------------|
G|------4-4----x4---------4-4----x4------------|---4--2--------------------|
D|-x-x--0-0----------x-x--2-2--------------x4--|--0---4----(let ring)------|
A|-x-x---------------x-x-----------------------|-0----0--------------------|
E|---------------------------------------------|------0--------------------|


| x  Mute note
============================================================================
Comments