Lit - Four Chords & Tabs

 

Four Chords & Tabs

Lit Chords & Tabs

Version: 4 Type: Tab 0 ratings
1 star 2 stars 3 stars 4 stars 5 stars
comments

Four Tab

   
X===============================PLEASE NOTE==============================X
X  This tab is all my own and represents my interpretation of the song.  X
X You may only use this tab for private study, scholarship, or research. X
X  Do not change, deface, mutilate, or in any other way alter this tab.  X
X   You must email me first if you want to use this tab on your site.    X
X========================================================================X


*Four*
Transcribed by Obscured@san.rr.com
Http://home.san.rr.com/obscured


Tuning: Eb Ab Db Gb Bb Eb


INTRO
|---------------|
|---------------|
|-9-9-----------|
|-9-9---8/9-9---|
|-7-7---8/9-9---|
|-----0-6/7-7-0-|


VERSE
                           x2
|----------------------------|
|----------------------------|
|-4--4-----------------------|
|-4--4------4------6--2-2-2--|
|-2--2------4------6--2-2-2--|
|-------2-2-2--4-4-4--0-0-0--|
        ...    ...

                                x2
|---------------------------------|
|---------------------------------|
|-4-4-4-4-------------------------|
|-4-4-4-4-6-6-6-6-2-2-2-2-4-4-4-4-|
|-2-2-2-2-6-6-6-6-2-2-2-2-4-4-4-4-|
|---------4-4-4-4-0-0-0-0-2-2-2-2-|


CHORUS
|-----------------------------------------------------------------|
|-----------------------------------------------------------------|
|-4-4-4-4-4-4-4-4-------------------------------------------------|
|-4-4-4-4-4-4-4-4-4-4-4-4-4-4-4-4-2-2-2-2-2-2-2-2-4-4-4-4-4-4-4-4-|
|-2-2-2-2-2-2-2-2-4-4-4-4-4-4-4-4-2-2-2-2-2-2-2-2-4-4-4-4-4-4-4-4-|
|-----------------2-2-2-2-2-2-2-2-0-0-0-0-0-0-0-0-2-2-2-2-2-2-2-2-|

Last time play this
|----------|
|----------|
|----------|
|-2--------|
|-2--------|
|-0--------|

Then play the intro again before playing verse 2


VERSE 2 - Same


CHORUS 2 - Same

[ Tab from: http://www.guitartabs.cc/tabs/l/lit/four_tab_ver_4.html ]
BRIDGE
|-------------------------------------|
|-------------------------------------|
|-7-----------------5-----------------|
|-7--------7--------5--------5--------|
|-5--------7--------3--------5--------|
|----------5-----------------3--------|

|------------------------------------|
|------------------------------------|
|-7-----------------5----------------|
|-7--------7--------5----------------|
|-5--------7--------3----------------|
|----------5-------------------------|


SOLO - With verse rhythm
|--------------------------------------|
|--------------------------------------|
|-11-11-8------------11-11-8----8------|
|----------11-9-9~~----------11---9~~--|
|--------------------------------------|
|--------------------------------------|

|----------------------------------------------|
|----------------------------------------------|
|------8-11------8-----------8-11------8-------|
|-9-11------9-11---9~~--9-11------9-11---9~~~~-|
|----------------------------------------------|
|----------------------------------------------|


PRECHORUS
|-------------------------------------|
|-------------------------------------|
|-4-----------------------------------|
|-4--------4--------2--------4--------|
|-2--------4--------2--------4--------|
|----------2--------0--------2--------|

|---------------------------------------------------|
|---------------------------------------------------|
|-4-------------------------------------------------|
|-4--------4--------2-2-2-2-2-2-2-2-4-4-4-4-4-4-4-4-|
|-2--------4--------2-2-2-2-2-2-2-2-4-4-4-4-4-4-4-4-|
|----------2--------0-0-0-0-0-0-0-0-2-2-2-2-2-2-2-2-|
                      .............................


CHORUS 3

End on
|----------------------------|
|----------------------------|
|----------9-----------------|
|-2--------9--------2--------|
|-2--------7--------2--------|
|-0-----------------0--------|
Comments