Lit - Four Chords & Tabs

 

Four Chords & Tabs

Lit Chords & Tabs

Version: 3 Type: Tab 0 ratings
1 star 2 stars 3 stars 4 stars 5 stars
comments

Four Tab

   
//// Four \\\\

   Artist: Lit
   Tuning: Detune a semitone: Eb Ab Db Gb Bb Eb
   Key: *'s mean PALM MUTING


   Transcribed by Wang (Wwanging@hotmail.com)
   -----------------------------------------------------------------------------


   Intro x8
   e:------------------|
   B:------------------|
   G:9--9--------------|
   D:9--9--8--8--9--9--|
   A:7--7--8--8--9--9--|
   E:------6--6--7--7--|


   Verse
   e:---------------------------------------------------------------------------|
   B:---------------------------------------------------------------------------|
   G:-4--4--------------------------------------4--4----------------------------|
   D:-4--4--------4--4--------6--6--2--2--2--2--4--4--------4--4--------6--6--2-|
   A:-2--2--------4--4--------6--6--2--2--2--2--2--2--------4--4--------6--6--2-|
   E:-------2--2--2--2--4--4--4--4--0--0--0--0--------2--2--2--2--4--4--4--4--0-|
   * * * * * * * * 


   e:---------------------------------------------------------------------------|
   B:---------------------------------------------------------------------------|
   G:----------4--4--4-----------------------------4--4--4----------------------|
   D:-2--2--2--4--4--4--6--6--6--2--2--2--4--4--4--4--4--4--6--6--6--2--2--2--4-|
   A:-2--2--2--2--2--2--6--6--6--2--2--2--4--4--4--2--2--2--6--6--6--2--2--2--4-|
   E:-0--0--0-----------4--4--4--0--0--0--2--2--2-----------4--4--4--0--0--0--2-|


   e:------|
   B:------|
   G:------|
   D:-4--4-|
   A:-4--4-|
   E:-2--2-|


   Chorus x3
   e:------------------------------------------------------------------------|
   B:------------------------------------------------------------------------|
   G:-4--4--4--4--4--4-------------------------------------------------------|
   D:-4--4--4--4--4--4--4--4--4--4--4--4--2--2--2--2--2--2--4--4--4--4--4--4-|
   A:-2--2--2--2--2--2--4--4--4--4--4--4--2--2--2--2--2--2--4--4--4--4--4--4-|
   E:-------------------2--2--2--2--2--2--0--0--0--0--0--0--2--2--2--2--2--2-|

   End chorus with: 
   e:------------------|
   B:------------------|
   G:------------------|
   D:-2----------------|
   A:-2----------------|
   E:-0----------------|


   Intro
   Verse
   Chorus
   Intro
[ Tab from: http://www.guitartabs.cc/tabs/l/lit/four_tab_ver_3.html ]
   Then play x2:
   e:---------------------------------------------------------------------------|
   B:---------------------------------------------------------------------------|
   G:-7--7--7--7--7--7--7--7--7--7--7--7--7--7--7--6--2--2--2--2--2--2--2--2--2-|
   D:-7--7--7--7--7--7--7--7--7--7--7--7--7--7--7--6--2--2--2--2--2--2--2--2--2-|
   A:-5--5--5--5--5--5--5--5--5--5--5--5--5--5--5--4--0--0--0--0--0--0--0--0--0-|
   E:---------------------------------------------------------------------------|





   e:---------------------------------------------------------------------------|
   B:---------------------------------------------------------------------------|
   G:-2--2--2--2--2--4--5--5--5--5--5--5--5--5--5--5--5--5--5--5--5-------------|
   D:-2--2--2--2--2--4--5--5--5--5--5--5--5--5--5--5--5--5--5--5--5--5--5--5--5-|
   A:-0--0--0--0--0--2--3--3--3--3--3--3--3--3--3--3--3--3--3--3--3--5--5--5--5-|
   E:----------------------------------------------------------------3--3--3--3-|





   e:----------------------------------|
   B:----------------------------------|
   G:----------------------------------|
   D:-5--5--5--5--5--5--5--5--4--2--4--|
   A:-5--5--5--5--5--5--5--5--4--2--4--|
   E:-3--3--3--3--3--3--3--3--2--0--2--|

   Solo
   e:----------------------------------------------------------------------2----|
   B:-7--7--7--7--4--4--2--2--4-----7--7--7--7--4--4--2--2--4--------2--4-------|
   G:----------------------------4-----------------------------4--4-----------4-|
   D:---------------------------------------------------------------------------|
   A:---------------------------------------------------------------------------|
   E:---------------------------------------------------------------------------|


   e:-------------------2--------------|
   B:-2--4--------2--4--------2--4-----|
   G:-------4--4-----------4--------4--|
   D:----------------------------------|
   A:----------------------------------|
   E:----------------------------------|



   e:--------------------------------------------------------|
   B:--------------------------------------------------------|
   G:-4-----------4--4---------------------------------------|
   D:-4--4--2--4--4--4--4------------------------------------|
   A:-2--4--2--4--2--2--4--2--2--2--2--2--2--2--4--4--4--4--4|
   E:----2--0--2--------2--0--0--0--0--0--0--0--2--2--2--2--2|
   * * * * * * * * * * * *

   Chorus

   end with an open E chord

   Wang'99
Comments