Lit - Four Chords & Tabs

 

Four Chords & Tabs

Lit Chords & Tabs

Version: 1 Type: Bass Tab 0 ratings
1 star 2 stars 3 stars 4 stars 5 stars
comments

Four Bass Tab

Four by Lit
Transcribed by Jon Ritts (bigearl192000@yahoo.com)

Any suggestions/corrections/questions that you have, feel free to write me.
Enjoy!

Tuned down 1/2 step

Intro 1: (after resting for 4 measures of guitar intro)
Ab|-2-2-2--1-1-2-2-||
Eb|----------------||

Verse:
Db|---------------|---------------|---------------|---------------||
Ab|-2-2-2---------|---------------|-2-2-2---------|---------------||
Eb|--------2-2-2--|-4-4-4--0-0-0--|--------2-2-2--|-4-4-4--0-0-0--||

Db|-----------------|-----------------|-----------------|-2-2-2-2-4-4-4-4-||
Ab|-2-2-2-2---------|-----------------|-2-2-2-2---------|-----------------||
Eb|---------4-4-4-4-|-0-0-0-0-2-2-2-2-|---------4-4-4-4-|-----------------||

Chorus:
Ab|o-2-2-2-2-2-2-2-2-|-----------------|-----------------|
Eb|o-----------------|-2-2-2-2-2-2-2-2-|-0-0-0-0-0-0-0-0-|

Ab|-----------------o|--------|
Eb|-2-2-2-2-2-2-2-2-o|-0------|
       (repeat twice)

Intro 2:
Ab|------1-1-2-2---|------1-1-2-2-||
Eb|-0-0----------0-|-0-0----------||  (play twice)

Play verse riff
Then chorus again

Intro 3:
Ab|------1-1-2-2---|------1-1-2-2-|------1-1-2-2---|--------||
Eb|-0-0----------0-|-0-0----------|-0-0----------0-|-0------||

Bridge 1:
Db|-----------------|-----------------|-----------------|-----------------|
Ab|-5-5-5-5-5-5-5-5-|-5-5-5-5-5-5-4-2-|-----------------|-------------2-2-|
Eb|-----------------|-----------------|-5-5-5-5-5-5-5-5-|-5-5-3-3-5-5-----|
[ Tab from: http://www.guitartabs.cc/tabs/l/lit/four_btab.html ]
Db|-----------------|-----------------|-----------------|-----------------|
Ab|-3-3-3-3-3-3-3-3-|-3-3-3-3-3-3-2-2-|-----------------|-----------------|
Eb|-----------------|-----------------|-3-3-3-3-3-3-3-3-|-3-3-2-2-0-0-2-2-|

Db|-----------------|-----4-4-5-5-6-6-|-7-7-7-7-7-7-7-7-|-7-7-5-5-4-4-2-2-|
Ab|-5-5-5-5-5-5-5-5-|-5-5-------------|-----------------|-----------------|
Eb|-----------------|-----------------|-----------------|-----------------|

Db|-----------------|-----------------|-2-2-2-2-2-2-2-2-|-5-5-5-5-5-5-5-5-||
Ab|-3-3-3-3-3-3-3-3-|-3-3-3-3-3-3-3-3-|-----------------|-----------------||
Eb|-----------------|-----------------|-----------------|-----------------||

Play verse riff (during the guitar solo)

Bridge 2:
Ab|-2------|--------|--------|--------|-2------|--------|
Eb|--------|-2------|-0------|-2----2-|--------|-2------|

Ab|----------------|-----------------||
Eb|-0--0-0-0-0-0-0-|-2-2-2-2-2-2-2-2-||

Chorus riff (only take the repeat once)

Ending:
Gb|-----------------|-----------------|-----------------|-----------------|
Db|-----------------|-4-4-4-4-4-4-4-4-|-2-2-2-2-2-2-2-2-|-----------------|
Ab|-2-2-2-2-2-2-2-2-|-----------------|-----------------|-----------------|
Eb|-----------------|-----------------|-----------------|-2-2-2-2-2-2-2-2-|

Gb|-----------------|-----1-1-3-3-4-4-|-4-4-3-3-1-1-----|-----------------|
Db|---------1-1-2-2-|-4-4-------------|-------------4-4-|-2-2-1-1---------|
Ab|-2-2-4-4---------|-----------------|-----------------|---------4-4-2-2-|
Eb|-----------------|-----------------|-----------------|-----------------|

Gb|--------|---------|--------||
Db|--------|---------|--------||
Ab|--------|---------|--------||
Eb|-0------|-12\-----|-0------||
Comments