Lit - Down Chords & Tabs

 

Down Chords & Tabs

Lit Chords & Tabs

Version: 4 Type: Tab 0 ratings
1 star 2 stars 3 stars 4 stars 5 stars
comments

Down Tab

   
X===============================PLEASE NOTE==============================X
X  This tab is all my own and represents my interpretation of the song.  X
X You may only use this tab for private study, scholarship, or research. X
X  Do not change, deface, mutilate, or in any other way alter this tab.  X
X   You must email me first if you want to use this tab on your site.    X
X========================================================================X


*Down*
Transcribed by Obscured@san.rr.com
Http://home.san.rr.com/obscured


Tuning: E A D G B E


INTRO
|--------------------------------|
|--------------------------------|
|-----------------------------5--|
|-5-4-5-x-x-5-5-4-5-x-x-5-5-4-5--|
|-5-4-5-x-x-5-5-4-5-x-x-5-5-4-3--|
|-3-2-3-x-x-3-3-2-3-x-x-3-3-2----|

|-------------------------------|
|-------------------------------|
|-------------------------------|
|-5-4-5-x-x-5-5-4-5-x-x-5-4--4--|
|-5-4-5-x-x-5-5-4-5-x-x-5-4--4--|
|-3-2-3-x-x-3-3-2-3-x-x-3-2--2--|


VERSE - Same as intro


PRECHORUS
|-------------------|
|-------------------|
|-7--------5--------|
|-7--------5--------|
|-5--------3--------|
|-------------------|
[ Tab from: http://www.guitartabs.cc/tabs/l/lit/down_tab_ver_4.html ]
|--------------------------------|
|--------------------------------|
|--------------------------------|
|-5-4-5-x-x-5-5-4-5-x-x-5-5-4-5--|
|-5-4-5-x-x-5-5-4-5-x-x-5-5-4-5--|
|-3-2-3-x-x-3-3-2-3-x-x-3-3-2-3--|

|-------------------|
|-------------------|
|-7--------5--------|
|-7--------5--------|
|-5--------3--------|
|-------------------|


CHORUS
|-------------------|
|-------------------|
|----------4--------|
|-4--------4--------|
|-4--------2--------|
|-2-----------------|


VERSE 2 - Same


PRECHORUS 2 - Same


CHORUS 2 - Same


INTERLUDE
|-2--------2--------|
|-2--------2--------|
|-3--------4--------|
|-4--------4--------|
|-4--------2--------|
|-2-----------------|


BRIDGE
|---------------------------------|
|---------------------------------|
|-------5-5-5-------5-5-5-----5-5-|
|-2-2-2-5-5-5-2-2-2-5-5-5-2-2-5-5-|
|-2-2-2-3-3-3-2-2-2-3-3-3-2-2-3-3-|
|-0-0-0-------0-0-0-------0-0-----|

|---------------------------------|
|---------------------------------|
|---------------------------------|
|-4-4-4-4-4-4-4-4-4-4-4-4-4-4-4-4-|
|-4-4-4-4-4-4-4-4-4-4-4-4-4-4-4-4-|
|-2-2-2-2-2-2-2-2-2-2-2-2-2-2-2-2-|

|---------------------------------|
|---------------------------------|
|-------5-5-5-------5-5-5-----5-5-|
|-2-2-2-5-5-5-2-2-2-5-5-5-2-2-5-5-|
|-2-2-2-3-3-3-2-2-2-3-3-3-2-2-3-3-|
|-0-0-0-------0-0-0-------0-0-----|


PRECHORUS 3 - Same


CHORUS 3 - Same

End on
|----------|
|----------|
|----------|
|-4--------|
|-4--------|
|-2--------|
Comments