Lit - Down Chords & Tabs

 

Down Chords & Tabs

Lit Chords & Tabs

Version: 2 Type: Tab 0 ratings
1 star 2 stars 3 stars 4 stars 5 stars
comments

Down Tab

                                  Lit-Down

Tabbed by:Bonasso
E-mail: bonasso@libero.it

Riff1

e-------------------------------------------------
B-------------------------------------------------
G--------------------------------------------5----
D--5--4--5--x--x--5--5--4--5--x--x--5--4--4--5----
A--5--4--5--x--x--5--5--4--5--x--x--5--4--4--3----
E--3--2--3--x--x--3--3--2--3--x--x--3--2--2-------

e-------------------------------------------------
B-------------------------------------------------
G-------------------------------------------------
D--5--4--5--x--x--5--5--4--5--x--x--5-----3--3----
A--5--4--5--x--x--5--5--4--5--x--x--5-----3--3----
E--3--2--3--x--x--3--3--2--3--x--x--3-----1--1----


e-------------------------------------------------
B-------------------------------------------------
G--------------------------------------------5----
D--5--4--5--x--x--5--5--4--5--x--x--5--4--4--5----
A--5--4--5--x--x--5--5--4--5--x--x--5--4--4--3----
E--3--2--3--x--x--3--3--2--3--x--x--3--2--2-------

Riff2
[ Tab from: http://www.guitartabs.cc/tabs/l/lit/down_tab_ver_2.html ]
e-------------------------------------------------
B-------------------------------------------------
G--------------------------------------------7----
D--5--4--5--x--x--5--5--x--5--x--x--5--5--4--7----
A--5--4--5--x--x--5--5--x--5--x--x--5--5--4--5----
E--3--2--3--x--x--3--3--x--3--x--x--3--3--2-------

e-------------------------------------------------
B-------------------------------------------------
G--7-----7-----x--7--7--7-----5-----5-----5-------
D--7-----7-----x--7--7--7-----5-----5-----5-------
A--5-----5-----x--5--5--5-----3-----3-----3-------
E-------------------------------------------------

e-------------------------------------------------
B-------------------------------------------------
G--------------------------------------------7----
D--5--4--5--x--x--5--5--x--5--x--x--5--5--4--7----
A--5--4--5--x--x--5--5--x--5--x--x--5--5--4--5----
E--3--2--3--x--x--3--3--x--3--x--x--3--3--2-------

e-------------------------------------------------
B-------------------------------------------------
G--7-----7-----x--7--7--7-----5-----5-----5-------
D--7-----7-----x--7--7--7-----5-----5-----5-------
A--5-----5-----x--5--5--5-----3-----3-----3-------
E-------------------------------------------------

Scusate ma il seguito non lo so.
Comments