Lit - Completely Miserable Chords & Tabs

 

Completely Miserable Chords & Tabs

Lit Chords & Tabs

Version: 1 Type: Tab 0 ratings
1 star 2 stars 3 stars 4 stars 5 stars
comments

Completely Miserable Tab

Artist: LIT
Song: Completely Miserable
tabbed by: Myla Cardenas->e-mail: ooobubblyooo@hotmail.com

hello ppl, here's another one, i think it's a whole lot easier to read and a hell of a lot easier to play

no capo or anything needed
[ Tab from: http://www.guitartabs.cc/tabs/l/lit/completely_miserable_tab.html ]
Intro/chorus
|--------------------------|
|--------------------------|
|--------------------------|
|--12-12---7-7---2-2-4-4---|
|--12-12---7-7---2-2-4-4---|
|--10-10---5-5---0-0-2-2---|

verse
|------------------------------------------|
|------------------------------------------|
|------------------------------------------|
|--7-7-7-7-7-7-7-7---4-4-4-4-4-4-4-4-------|
|--7-7-7-7-7-7-7-7---4-4-4-4-4-4-4-4-------|
|--5-5-5-5-5-5-5-5---2-2-2-2-2-2-2-2-------|

but there's something missing in both of those, hopefully you'll 
figure it out 
email me if u do
Comments