Lit - A Place In The Sun Chords & Tabs

 

A Place In The Sun Chords & Tabs

Lit Chords & Tabs

Version: 2 Type: Tab 0 ratings
1 star 2 stars 3 stars 4 stars 5 stars
comments

A Place In The Sun Tab

   
X===============================PLEASE NOTE==============================X
X  This tab is all my own and represents my interpretation of the song.  X
X You may only use this tab for private study, scholarship, or research. X
X  Do not change, deface, mutilate, or in any other way alter this tab.  X
X   You must email me first if you want to use this tab on your site.    X
X========================================================================X


*A Place in the Sun*
Transcribed by Obscured@san.rr.com
Http://home.san.rr.com/obscured


Tuning: Eb Ab Db Gb Bb Eb


INTRO 
|-----------------------------------------------------|
|-----------------------------------------------------|
|-----------------------------------------------------|
|-2---2-5---5-2---2-5---5-2---2-5---5-8-8-8-8-8-8-8-8-|
|-2---2-5---5-2---2-5---5-2---2-5---5-8-8-8-8-8-8-8-8-|
|-0---0-3---3-0---0-3---3-0---0-3---3-6-6-6-6-6-6-6-6-|


VERSE
|-----------------------------------------------------|
|-----------------------------------------------------|
|-----------------------------------------------------|
|-2-----------------------------------8-8-8-8-8-8-8-8-|
|-2-----------------------------------8-8-8-8-8-8-8-8-|
|-0-----------------------------------6-6-6-6-6-6-6-6-|


PRECHORUS

           x2
|------------|----------------------|----------------------|
|------------|----------------------|----------------------|
|------5-----|------5----7----------|------5----7----------|
|-5----5--3--|-5----5----7----5--5--|-2----5----7----5--5--|
|-5----3--3--|-5----3----5----5--5--|-2----3----5----5--5--|
|-3-------1--|-3--------------3--2--|-0--------------3--2--|


BRIDGE - Play intro


VERSE 2 - Same


PRECHORUS 2 - Same but add this to the end
[ Tab from: http://www.guitartabs.cc/tabs/l/lit/a_place_in_the_sun_tab_ver_2.html ]
|-----------------------------------------------------------------|
|-----------------------------------------------------------------|
|-3-3-3-3-3-3-3-3-3-3-3-3-3-3-3-3-5-5-5-5-5-5-5-5-5-5-5-5-5-5-5-5-|
|-3-3-3-3-3-3-3-3-3-3-3-3-3-3-3-3-5-5-5-5-5-5-5-5-5-5-5-5-5-5-5-5-|
|-1-1-1-1-1-1-1-1-1-1-1-1-1-1-1-1-3-3-3-3-3-3-3-3-3-3-3-3-3-3-3-3-|
|-----------------------------------------------------------------|


CHORUS
|-------------------|
|-------------------|
|----------6--------|
|-3--------6--------|
|-3--------4--------|
|-1-----------------|


BRIDGE 2
|-----------------------------------------------------------------|
|-----------------------------------------------------------------|
|-----------------------------------------------------------------|
|-----------------------------------------------------------------|
|-----------------------------------------------------------------|
|-0-0-0-0-3-3-3-3-0-0-0-0-3-3-3-3-0-0-0-0-3-3-3-3-6-6-6-6-6-6-6-6-|


PRECHORUS 3

           x2                                            x3
|------------|----------------------|----------------------|
|------------|----------------------|----------------------|
|------5-----|------5----7----------|------5----7----------|
|-5----5--3--|-5----5----7----5--5--|-2----5----7----5--5--|
|-5----3--3--|-5----3----5----5--5--|-2----3----5----5--5--|
|-3-------1--|-3--------------3--2--|-0--------------3--2--|

|-----------------------------------------------------------------|
|-----------------------------------------------------------------|
|-3-3-3-3-3-3-3-3-3-3-3-3-3-3-3-3-5-5-5-5-5-5-5-5-5-5-5-5-5-5-5-5-|
|-3-3-3-3-3-3-3-3-3-3-3-3-3-3-3-3-5-5-5-5-5-5-5-5-5-5-5-5-5-5-5-5-|
|-1-1-1-1-1-1-1-1-1-1-1-1-1-1-1-1-3-3-3-3-3-3-3-3-3-3-3-3-3-3-3-3-|
|-----------------------------------------------------------------|


CHORUS 2/OUTRO - Same

 Lead
|-------------|
|-13----------|
|-----13------|
|---------15--|
|-------------|
|-------------|

Fade out...
Comments