Lit - A Place In The Sun Chords & Tabs

 

A Place In The Sun Chords & Tabs

Lit Chords & Tabs

Version: 1 Type: Tab 0 ratings
1 star 2 stars 3 stars 4 stars 5 stars
comments

A Place In The Sun Tab

#----------------------------------PLEASE NOTE---------------------------------#
#This file is the author's own work and represents their interpretation of the #
#song. You may only use this file for private study, scholarship, or research. #
#------------------------------------------------------------------------------##

"a place in the sun"_____________________________________________________________________________ ___________intro:_________________________________________________________

------------------------------------------------------------------------------------------
------------------------------------------------------------------------------------------
--4-4-4-4-----------------------------------------------------------------------------
--4-4-4-4--3--------------------------------------------------------------------------
--2-2-2-2--3--------------------------------------------------------------------------
------------1--------------------------------------------------------------------------

_________________________________________________________________________________________________ ____________pre-chorus:___________________________________________________

-------------------------------------------------------------------------------------
-------------------------------------------------------------------------------------
-----4-4-4--5-5-5------------------------------------------------------------------
--3--4-4-4--5-5-5------------------------------------------------------------------
--3--2-2-2--3-3-3------------------------------------------------------------------
--1----------------------------------------------------------------------------------

_________________________________________________________________________________________________ ____________chorus:_______________________________________________________
[ Tab from: http://www.guitartabs.cc/tabs/l/lit/a_place_in_the_sun_tab.html ]
-------------------------------------------------------------------------------------
-------------------------------------------------------------------------------------
-------------------------------------------------------------------------------------
--4-3--4-3--4-3--7-7-7--6-6-6--5---------------------------------------------
--4-3--4-3--4-3--7-7-7--6-6-6--5---------------------------------------------
--2-1--2-1--2-1--5-5-5--4-4-4--3---------------------------------------------

_________________________________________________________________________________________________ ___________interlude at 1:37 + next chorus and verse_____________________________

---------------------------------------------------------------------:::::----------------------------------------------------------------------------------------------------------------
---------------------------------------------------------------------:::::----------------------------------------------------------------------------------------------------------------
---------------------------------------------------------------------:::::----------------------------------------------------------------------------------------------------------------
--5-X-X-X-X-X-X-X-4-X-X-X-X-X-X-X-3-X-X-X-X-X-X-X--:::::--6-6-6-6-6-6-6-6-6-6-6--4-4-4-4-4-4-4-4-4-4-4--5-5-5-5-5-5-5-5-5-5-5--3-3-3-3-3-3-3-3-3-3-3--
--5-X-X-X-X-X-X-X-4-X-X-X-X-X-X-X-3-X-X-X-X-X-X-X--:::::--6-6-6-6-6-6-6-6-6-6-6--4-4-4-4-4-4-4-4-4-4-4--5-5-5-5-5-5-5-5-5-5-5--3-3-3-3-3-3-3-3-3-3-3--
--3-X-X-X-X-X-X-X-2-X-X-X-X-X-X-X-1-X-X-X-X-X-X-X--:::::--4-4-4-4-4-4-4-4-4-4-4--2-2-2-2-2-2-2-2-2-2-2--3-3-3-3-3-3-3-3-3-3-3--1-1-1-1-1-1-1-1-1-1-1-- 

_________________________________________________________________________________________________ ___________outro:________________________________________________________________

-----------------------------------------------------------------------------
-----------------------------------------------------------------------------
-----------------------------------------------------------------------------
--6-6-6-6-6-6-6-6-6-6-6--4-4-4-4-4-4-4-4-4-4-4--------------------------
--6-6-6-6-6-6-6-6-6-6-6--4-4-4-4-4-4-4-4-4-4-4--------------------------
--4-4-4-4-4-4-4-4-4-4-4--2-2-2-2-2-2-2-2-2-2-2--------------------------
Comments