Liszt Franz - Hungarian Rhapsody Chords & Tabs

 

Hungarian Rhapsody Chords & Tabs

Liszt Franz Chords & Tabs

Version: 1 Type: Tab 1 rating
1 star 2 stars 3 stars 4 stars 5 stars
comments

Hungarian Rhapsody Tab

   
Hungarian Rhapsody - Franz Lizst
Tabbed by: springwaffle

This is just the ending. It's not complete but it's hard to 
translate all that from piano to guitar.

Dropped D: low to high [D a D g b e]

e-----------------------------------------------------------------
b-------------------------2-1-2-----4-----------------------------
g---------1-0-1-----1-3-4-------3-4---1-4---1-------3-------------
d---1-3-4-------3-4-----------------------3-----3-4-----4---------
a-4-------------------------------------------4-------4---1-4---1-
e-------------------------------------------------------------4---
[ Tab from: http://www.guitartabs.cc/tabs/l/liszt_franz/hungarian_rhapsody_tab.html ]
e-------------------------------------1-2-4-3-4-1-----6-7-9-8-9-
b-------------------------2-1-2---2-4-------------7-9-----------
g---------1-0-1-----1-3-4-------3-------------------------------
d---1-3-4-------3-4---------------------------------------------
a-4-------------------------------------------------------------
e---------------------------------------------------------------

e-6-7-11-4-7-1-4---1----------------------------------------------
b----------------2-----2-------------------------------------4~~~~
g--------------------3-----3---------------------------------4~~~~
d------------------------4-----4---------------3-------------4~~~~
a----------------------------6-----6---------4---1-4---1-----2~~~~
e--------------------------------9---6-9-3-6---------4---1-4------

e-----------------14----------
b-----------------------------
g-44-66--------11-------------
d-44-66-44~~~~-------4~~~~~~~~
a-22-44-44~~~~-------4~~~~~~~~
e-------44~~~~-------4~~~~~~~~
Comments