Lisa Loeb - Stay Chords & Tabs

 

Stay Chords & Tabs

Lisa Loeb Chords & Tabs

Version: 4 Type: Tab 0 ratings
1 star 2 stars 3 stars 4 stars 5 stars
comments

Stay Tab

   
Stay - Lisa Loeb
Tuning: Standard
Capo: 6th Fret

intro

e|-------5------------0--------------------------------------10----|
B|-----3-----------3p0------------5-----------7----------8---------|
G|---0-----------0-------------0-----------0-----------0---0-------|
D|-------------2---------------------------------------------------|
A|-----------------------------------------------------------------|
E|--------------------------5-------5/7-7-------7/8-8--------------|


e|-------5-----------------0---------------|
B|-----3----------------3p0----------------|
G|---0----------------0--------------------|
D|------------------2----------------------|
A|-----------------------------------------|
E|-----------------------------------------|
           you say           i only hear what i want to

e|------------------------------------10----|
B|---------5-----------7----------8---------|
G|------0-----------0-----------0---0-------|
D|------------------------------------------|
A|------------------------------------------|
E|---5-------5/7-7-------7/8-8--------------|

e|-------5----------------------0-----------|
B|-----3---------------------3p0------------|
G|---0---------------------0----------------|
D|-----------------------2------------------|
A|------------------------------------------|
E|------------------------------------------|
	  and you say             i talk so all the time

e|------------------------------------10----|
B|---------5-----------7----------8---------|
G|------0-----------0-----------0---0-------|
D|------------------------------------------|
A|------------------------------------------|
E|---5-------5/7-7-------7/8-8--------------|
             so...

Am7             G
  and i thought what i felt was simple
Am7             G
  and i thought that i don't belong
Am7       G
  and now that i am leaving
Am7          G
  now i know that i did something wrong
         Am7
'cause i miss you
C9             Am7       G      Am7      G
  yeah, yeah i missed you

e|-------5--------------------0--------------|
B|-----3-------------------3p0---------------|
G|---0-------------------0-------------------|
D|---------------------2---------------------|
A|-------------------------------------------|
E|-------------------------------------------|
           and you say          i only hear what i want to
e|-------------------------------------------|
B|-----------------5------------------7------|
G|-----------0-------------------0-----------|
D|-------------------------------------------|
A|-------------------------------------------|
E|----5----------------5/7-7-----------------|
[ Tab from: http://www.guitartabs.cc/tabs/l/lisa_loeb/stay_tab_ver_4.html ]
    i don't listen hard,   don't pay attention
e|-----------------------------10---10-10-10-|
B|-----------------8-----------------8--8--8-|
G|-----------0----------0------------0--0--0-|
D|-------------------------------------------|
A|-------------------------------------------|
E|--7/8---8--------------------------8--8--8-|
   to the distance that you're running
to anyone or anywhere
 Am7         G
i don't understand if you really care
   Am7               G              Am7     G
i'm only hearing negative, no no no
     Am7             G
so i, i turn the radio on
                Am7
i turn the radio up
               G
and this woman was singing my song
Am7            G
lovers in love and the others run away
Am7             G
lover is crying 'cause the other won't stay
Am7                G
  some of us suffer when we weep for the other
         Am7                  G
who were crying since the day they were born, well
    Am7           G                                  Am7        G
well, this is not bad, i think that i'm throwing but i'm thrown
Am7
and i thought i'd live forever
                                   C9
but now i'm not so sure you try to tell me that i'm clever
but that won't take me anyhow

e|-----------------------------------------10--|
B|----------5-------------7------------8-------|
G|-------0-------------0-------------0---0-----|
D|---------------------------------------------|
A|---------------------------------------------|
E|----5--------5/7--7----------7/8-8-----------|
         or anywhere      with you
Am7             G
  you said that i was not even
Am7              G
  i thought that i was strong no
Am7             G
  i thought hey i can leave, i can leave oh
Am7             G
oop, now i know that i was wrong
         Am7
'cause i missed you
C9                  Am7     G     Am7     G
  yeah i missed you
             Am7
you said you caught me 'cause you want me
oh then one day you let me go
           C9
you try to take away a keeper
or keep me 'cause you know you're just
e|-------------------------------------10-----|
B|----------5----------------7----------8-----|
G|-------0----------------0-----------0---0---|
D|--------------------------------------------|
A|--------------------------------------------|
E|----5------------5/7-7-------7/8-8----------|
            scared to lose

e|-----------------5-----------0--------------|
B|---------------3----------3p0---------------|
G|-------------0----------0-------------------|
D|----------------------2---------------------|
A|--------------------------------------------|
E|--------------------------------------------|
   and you say,              "stay..."
e|-------------------------------------10-----|
B|----------5-----------7---------8-----------|
G|-------0-----------0----------0---0---------|
D|--------------------------------------------|
A|--------------------------------------------|
E|----5-------5/7-7-------7/8-8---------------|

e|-------5----------------0-------------------|
B|-----3---------------3p0--------------------|
G|---0---------------0------------------------|
D|-----------------2--------------------------|
A|--------------------------------------------|
E|--------------------------------------------|
          you say,           i only hear what i want to

e|-------------------------------------10---------------------------|
B|----------5-----------7----------8--------------------------------|
G|-------0-----------0-----------0---0------------------------------|
D|------------------------------------------------------------------|
A|------------------------------------------------------------------|
E|----5-------5/7-7-------7/8-8-------------------------------------|
--------------------------------------------------------------------|
Transcribed by: Jeno & Josef Villanueva
For comments and suggestions, please email us.
(opep_vida_22@yahoo.com or jenofutbol@hotmail.com)
Comments