Lisa Loeb - Stay Acoustic Chords & Tabs

 

Stay Acoustic Chords & Tabs

Lisa Loeb Chords & Tabs

Version: 1 Type: Tab 0 ratings
1 star 2 stars 3 stars 4 stars 5 stars
comments

Stay Acoustic Tab

STAY by lisa loeb
Tab by Ryan velez 2589198

STANDARD TUNING
E--------11----------6------------|
B----------------6----------------|
G-----13-------6---6--------------|
D--11--------8--------------------|
A---------------------------------|
E---------------------------------|


E---------------------------------9-9999----|
B---------------------------------9-9999----|
G-------8----------10----------11-----------|
D-----8---------10----------11--------------|
A-8-6-----6s8-8-------8s9-9-----------------|
E-------------------------------------------|

E---6--4-------|
B---6--4-------|
G---8--6-------|
D---8--6-------|	4x
A---6--4-------|
E---6--4-------|


E---9----------------2-------------|
B---9----------------2-------------|
G---11---------------2-------------|
D---11---------------4-------------|
A---9----------------4-------------|
E---9----------------2-------------|

E---6--4-------|
B---6--4-------|
G---8--6-------|
D---8--6-------|	2x
A---6--4-------|
E---6--4-------|

E--------11----------6------------|
B----------------6----------------|
G-----13-------6---6--------------|
D--11--------8--------------------|
A---------------------------------|
E---------------------------------|

E---------------------------------9-9999---------------------------------------|
B---------------------------------9-9999---------------------------------------|
G-------8----------10----------11----------------------------------------------|        2x
D-----8---------10----------11-------------------------------------------------|
A-8-6-----6s8-8-------8s9-9----------------------------------------------------|
E------------------------------------------------------------------------------|
 Don't listen hard......................anywhere
Don't understand......................no no no..........

E---6--4-------|
B---6--4-------|
G---8--6-------|
D---8--6-------|	4x
A---6--4-------|
E---6--4-------|


E---9----------------2-------------|
B---9----------------2-------------|
G---11---------------2-------------|
D---11---------------4-------------|
A---9----------------4-------------|
E---9----------------2-------------|
[ Tab from: http://www.guitartabs.cc/tabs/l/lisa_loeb/stay_acoustic_tab.html ]
E--------11----------6------------|
B----------------6----------------|
G-----13-------6---6--------------|
D--11--------8--------------------|
A---------------------------------|
E---------------------------------|

E---------------------------------9-9999--|
B---------------------------------9-9999--|
G-------8----------10----------11---------|        2x
D-----8---------10----------11------------|
A-8-6-----6s8-8-------8s9-9---------------|
E-----------------------------------------|

E---6--4-------|
B---6--4-------|
G---8--6-------|
D---8--6-------|	4x
A---6--4-------|
E---6--4-------|

E---------------------------------9-9999--|
B---------------------------------9-9999--|
G-------8----------10----------11---------|        2x
D-----8---------10----------11------------|
A-8-6-----6s8-8-------8s9-9---------------|
E-----------------------------------------|

E--------11----------6------------|
B----------------6----------------|
G-----13-------6---6--------------|
D--11--------8--------------------|
A---------------------------------|
E---------------------------------|
You say............
E---------------------------------9-9999----------------------------------------|
B---------------------------------9-9999----------------------------------------|
G-------8----------10----------11-----------------------------------------------|
D-----8---------10----------11--------------------------------------------------|
A-8-6-----6s8-8-------8s9-9-----------------------------------------------------|
E-------------------------------------------------------------------------------|

E--------11----------6------------|
B----------------6----------------|
G-----13-------6---6--------------|
D--11--------8--------------------|
A---------------------------------|
E---------------------------------|

E---------------------------------9-9999----------------------------------------|
B---------------------------------9-9999----------------------------------------|
G-------8----------10----------11-----------------------------------------------|
D-----8---------10----------11--------------------------------------------------|
A-8-6-----6s8-8-------8s9-9-----------------------------------------------------|
E-------------------------------------------------------------------------------|
Comments