Liquido - Narcotic Chords & Tabs

 

Narcotic Chords & Tabs

Liquido Chords & Tabs

Version: 3 Type: Tab 0 ratings
1 star 2 stars 3 stars 4 stars 5 stars
comments

Narcotic Tab

   
Tab for NARCOTIC from Liquido

*CORRECTED VERSION*

tabbed by Brannas


intro:

e---------------------------------6--4-6-4-6-4-6-------------------
B--4-6-4-6-4-6-4--7--6-7-6-7-6-7------------------6--4-6-4-6--7----
G------------------------------------------------------------------
7------------------------------------------------------------------
4------------------------------------------------------------------
E------------------------------------------------------------------
[ Tab from: http://www.guitartabs.cc/tabs/l/liquido/narcotic_tab_ver_3.html ]
e---------------------------------6--4-6-4-6-4-6-------------------
B--6-4-6-4-6-4-6--7--6-7-6-7-6-7------------------6--4-6-4-6--7----
G------------------------------------------------------------------
7------------------------------------------------------------------
4------------------------------------------------------------------
E------------------------------------------------------------------

Verse: only bass : C# D# F# C#

chorus: C#5 D#5 F#5 C#5  <--- distorted guitar
fret:   4   6   2   4

"and I touched your face" part:
      D#5 F#5 C#5
fret: 11  9   9

that is all ,if someone has lyrics please add them

Comments