Liquido - Narcotic Chords & Tabs

 

Narcotic Chords & Tabs

Liquido Chords & Tabs

Version: 2 Type: Tab 0 ratings
1 star 2 stars 3 stars 4 stars 5 stars
comments

Narcotic Tab

   
Artist : Liquido
Song : Narcotic (radio edit)
Album : Liquido
Tabbed by : A.W.R.
Date : 24.6.2001 , 15:20 MEZ

Intro : (played with a keyboard , but with a guitar it sound good , too !)
e |--------------------------------------------------------------- 
B |6-4-6-4-6-4-6-4-7-6-7-6-7-6-7-6-11-9-11-9-11-9-11-9-6-4-6-4-6-7

Guitar riff : (played during chorus)
e|------------------------
B|------------------------ 
G|-6----8---------6----6-8     
D|-6-6x-8-6x-4----6-4x-6-8     
A|-4----6----4-6x-4----4-6 
E|-----------2------------ 

Bass riff : (played during the song except intro !)
G----------
D----------
A-4--6—---6
E-------2—-
  6x 6x
Bridge :
e|------------------------------------
B|------------------------------------     
G|-8--------------------6---------8---         
D|-8------------4-------6-4x------8-4x       
A|-6------------4-4x----4---------6---
E|--------------2--------------------- 
    ********** 
e|---------------------------------------
B|---------------------------------------     
G|-6-8---------------------6---------8---         
D|-6-8-------------4-------6-4x------8-4x       
A|-4-6-------------4-4x----4---------6---
E|----------------2---------------------- 
      **********


*=Break ; all instruments stop here !

Accustic Guitar chords :
   C  d  F
e|----1--1---
B|-1--3--1---     
G|----2--2---         
D|-2-----3---        
A|-3---------
E|-----------

listen to it to finger out how to strike the strings !
[ Tab from: http://www.guitartabs.cc/tabs/l/liquido/narcotic_tab_ver_2.html ]
Intro 2x 
Intro & Guitar riff 2x   
4x bass riff
Guitar riff & Intro
Guitar riff & Intro 
2x bass riff
bass riff & A-guitar riff
bass riff & A-guitar riff
Guitar riff & Intro
Guitar riff & Intro
Bridge 2x
Guitar riff & Intro
Guitar riff & Intro
(repeat and fade out)

Bass plays its riff all through the song except : the first intro !

1# verse
So you face it with a smile , ther’s no need to cry for a triffle’s more than this .Will still recall my name and the month it all began , will you release me with a kiss . Have I tried to draw theveil , I have , how could I fail ? Did I fear t´he consequence ?!
Refain :
Dazed by careless words , cosy in my mi….ind !!!I don’t mind , I think so , I will let you go . I don’t mind , I think so I will let you go !
2# verse :
Now you have shaped the liquid wax , fit it out with crater cracks , sweet devotion , my delight . Oh you’re such a pretty one and the naked thrills of flesh and skin would tease me through the night . Now I hate to leave you bare , if you need me I’ll be there don’t you ever let me down ..
Refain :
Dazed by careless word , cosy in my mi..ind !!! I don’t mind , I think so , I will let you go . I don’t mind , I think so I will let you go ! 
Bridge :
And I touched your face , narcotic mind from lazed mary jaaaane ! And I called your name like an addicted to cocain calls for the stuff he rather blame ! And I touched your face , narcotic mind from lazed mary jaaaane ! And I called your name like an addicted to cocain calls for the stuff he rather blame !
Refain :
Dazed by careless word , cosy in my mi..ind !!! I don’t mind , I think so , I will let you go . I don’t mind , I think so I will let you go !

Repeat and fade out !!!

Comments