Liquido - Narcotic Chords & Tabs

 

Narcotic Chords & Tabs

Liquido Chords & Tabs

Version: 1 Type: Bass Tab 0 ratings
1 star 2 stars 3 stars 4 stars 5 stars
comments

Narcotic Bass Tab

                           Narcotic - Liquido
 Tabbed by paul czech

G---|------||---------------------------|--------------------------|
D---|--4:--||*--------------------------|--------------------------|
A---|--4:--||*--4--4--4--4--4--4--4--4--|--6--6--6--6--6--6--6--6--|
E---|------||---------------------------|--------------------------|

 G---------------------------|-----------------------------||
D---------------------------|--------------------------*---||
A---------------------------|--4--4--4--4--4--4--4--4--*---||
E---2--2--2--2--2--2--2--2--|------------------------------||

G---|--------------------------|--------------------------|
D---|--------------------------|--------------------------|
A---|-4--4--4--4--4--4--4--4---|--6--6--6--6--6--6--6--6--|
E---|--------------------------|--------------------------|

G---|--------------------------|--------------------------|
D---|--------------------------|--------------------------|
A---|--------------------------|--4--4--4--4--4--4--4--4--|
E---|--2--2--2--2--4--4--4--4--|--------------------------|
                                              end of riff
[ Tab from: http://www.guitartabs.cc/tabs/l/liquido/narcotic_btab.html ]
_____________________________________________________________

G---||------r--|--------------------------|
D---||*-----e--|--------------------------|
A---||*-----s--|--6--6--6--6--6--6--6--6--|
E---||------t--|--------------------------|

G---|--------------------------|--------------------------|
D---|--------------------------|--------------------------|
A---|--------------------------|--4--4--4--4--4--4--4--4--|
E---|--2--2--2--2--2--2--2--2--|--------------------------|
                                                        x4
______________________________________________________________

G---|-----------------------------|--------------------------|
D---|-----------------------------|--------------------------|
A---|-----4--4--4--4--4--4--4--4--|--6--6--6--6--6--6--6--6--|
E---|-----------------------------|--------------------------|
    Play this a few times and fade

G---|--------------------------|--------------------------|
D---|--------------------------|--------------------------|
A---|--------------------------|--4--4--4--4--4--4--4--4--|
E---|--2--2--2--2--2--2--2--2--|--------------------------|

For questions ask me paul-oline@gmx.net
Comments