Liquid Tension Experiment - Chewbacca Chords & Tabs

 

Chewbacca Chords & Tabs

Liquid Tension Experiment Chords & Tabs

Version: 1 Type: Tab 0 ratings
1 star 2 stars 3 stars 4 stars 5 stars
comments

Chewbacca Tab

   
"CHEWBACCA - from 1:16 to 2:28" - Guitar Tab
Author - Zero Assoluto
by Liquid Tension Experiment's album "LTE2"

Ok boys, this is the main theme of Chewbacca, this is very hard.
Tell me your comments at my E-Mail: 0assoluto@mail.rodax.it
Bye Bye and Live in ProgTonik Music!!!
Zero Assoluto

Drums intro

         Distorted guitar
E-||---|----------------------------------------|------------------------------
B-||---|----------------------------------------|------------------------------
G-||---|----------------------------------------|------------------------------
D-||---|--------5-----------------------5-4~-\x-|--------5----1-2--------------
A-||---|-0--3-4----0-6-7-3-4-3----0-3-4---------|-0--3-4----0-----5-4-3----0-3-
E-||---|-----------------------3----------------|-----------------------3------

E|----------------|----------------------------------------|-------------------
B|----------------|----------------------------------------|-------------------
G|----------------|----------------------------------------|-------------------
D|---5-4/-16------|--------5-----------------------5-4\--x-|--------5----------
A|-4---------x\-x-|-0--3-4----0-6-7-5-3-5----0-3-4---------|-0--3-4----0-3-4-5-
E|----------------|-----------------------3----------------|-------------------

                        With Wha-Wha
E|--------------------|--------------------------------------|------------------
B|--------------------|--------------------------------------|------------------
G|--------2--8--7--5--|----------------------------------10~-|------------------
D|--------2--8--7--5--|-12-10-12-x-10-12-12-x-10-12-12-x-----|-12-10-12-x-10-12-
A|-6-3----0--6--5--3--|--------------------------------------|------------------
E|-----3--0--6--5--3--|--------------------------------------|------------------
[ Tab from: http://www.guitartabs.cc/tabs/l/liquid_tension_experiment/chewbacca_tab.html ]
        Triplets
        |---3---|
E|------------------------|--------------------------------------|--------------
B|------------------------|--------------------------------------|--------------
G|---------12-10------10~-|----------------------------------10~-|--------------
D|-12-x-10-------12-x-----|-12-10-12-x-10-12-12-x-10-12-12-x-----|-12-10-12-x-10
A|------------------------|--------------------------------------|--------------
E|------------------------|--------------------------------------|--------------

           Triplets
           |---3---|               Wha-Wha off
E|-------------------------------|---------------------------------------|------
B|-----------------------13b15~--|---------------------------------------|------
G|------------12-10--------------|---------------------------------------|------
D|-12-12-x-10-------12-x---------|-------5-----------------------5-4~-\x-|------
A|-------------------------------|-0-3-4----0-6-7-3-4-3----0-3-4---------|-0--3-
E|-------------------------------|----------------------3----------------|------

E|-------------------------------------|----------------------------------------
B|-------------------------------------|----------------------------------------
G|-------------------------------------|----------------------------------------
D|---5----4-5----------------5-4/-16-x-|--------5-----------------------5-4~-\x-
A|-4----0-----6-7-3----0-3-4-----------|-0--3-4----0-6-7-3-4-3----0-3-4---------
E|------------------3------------------|-----------------------3----------------

                                           With Wha-Wha
E-|--------------------------------------|-----------------------------|-------
B-|--------------------------------------|---10--9--8------------------|---10--
G-|--------------------------------8--7--|-7-----------10---8---7--5/7-|-7-----
D-|--------5-----------------7--5--8--7--|----------------6---5--------|-------
A-|-0--3-4----0-6-7-3-4-3----7--5--6--5--|-----------------------------|-------
E-|-----------------------3--5--3--------|-----------------------------|-------


E|------------13b15--15b17~~-||-
B|-9--15--13-----------------||-
G|---------------------------||-
D|---------------------------||-
A|---------------------------||-
E|---------------------------||-

Legend
------
 b  = bend
 /  = slide up/down
 ~  = vibrato
Comments