Lionel Richie - Hello Chords & Tabs

 

Hello Chords & Tabs

Lionel Richie Chords & Tabs

Version: 1 Type: Tab 0 ratings
1 star 2 stars 3 stars 4 stars 5 stars
comments

Hello Tab

   
Not alot of ppl have come close to gettin this solo right. Im here to change that.

/ slide to
p pull off

e|---------------------------|-------------|-----5---7-8-5-7--
B|-------------5-6---5-------|-------4/5---|-4/5---5----------
G|-----2-4-5/7-----7---5-7-4-|-5p4-------7-|------------------
D|--2------------------------|-----7-------|------------------
A|---------------------------|-------------|------------------
E|---------------------------|-------------|------------------

e|---5---|-------------------------------------|
B|-8---5-|--7/8-7/8-7/8-7/8--------------8-----|
G|-------|--8/9-8/9-8/9-8/9--5--5--5-7/9---9/7-|
D|-------|-------------------------------------|
A|-------|-------------------------------------|
E|-------|-------------------------------------|
[ Tab from: http://www.guitartabs.cc/tabs/l/lionel_richie/hello_tab.html ]
e|-11/-12-13--12-|-10-12-10-|-------------|----------------|
B|---------------|----------|-13-12-13-10-|-10/-8-10-------|
G|-8-/-9--10--9--|-7--9--7--|-------------|----------------|
D|---------------|----------|-10-9--10-7--|-7-/-5-7--------|
A|---------------|----------|-------------|----------------|
E|---------------|----------|-------------|----------------|

e|---------7-8----7-----|------|---------12-10------|
B|----10-------10---8---|10---|------10-------------|
G|-/9----9--------------|----9-|----9---------------|
D|----------------------|------|-11-----------------|
A|----------------------|------|--------------------|
E|----------------------|------|--------------------|

the 

e|-11/-12-
B|--------
G|-8-/-9--

bit are octaves and juss put ur index finger on the 8 and pinky on the 11.. 
is quite easy and sounds pretty kewl.

enjoy.
Comments