Linkin Park And Jay-z - Points Of Authority 99 Problems One Step Closer Chords & Tabs

 

Points Of Authority 99 Problems One Step Closer Chords & Tabs

Linkin Park And Jay-z Chords & Tabs

Version: 1 Type: Tab 0 ratings
1 star 2 stars 3 stars 4 stars 5 stars
comments

Points Of Authority 99 Problems One Step Closer Tab

   
*******************
Linkin Park & Jay-Z
Points of Authority
    99 Problems
  One Step Closer
********************

Artist: Linkin Park
	Jay-Z
Album: Collision Course
Song: Points of Authority/99 Problems/One Step Closer
Tabbed by: Sébastien Major a.k.a. Zarchon
Tuning: Drop-D 1/2 step down
	C# G# C# F# A# D#

Intro (Points of Authority)

Guitar 1
C#|--------------------------------|
G#|--------------------------------|
C#|--------------------------------|
F#|2-2-22-2-02-23-0-2-2-22-2-2-0-3-|
A#|2-2-22-2-02-23-0-2-2-22-2-2-0-3-| 1st and 3rd time
D#|2-2-22-2-02-23-0-2-2-22-2-2-0-3-| X 4
       xx x             xx x

C#|--------------------------------|
G#|--------------------------------|
C#|--------------------------------|
F#|2-2-22-2-02-23-0-2-2-22---------|
A#|2-2-22-2-02-23-0-2-2-22---------| 2nd time
D#|2-2-22-2-02-23-0-2-2-22---------|
       xx x             xx


C#|--------------------------------|
G#|--------------------------------|
C#|--------------------------------|
F#|2-2-22-2-02-23-0-2-2-22-2-2-0---|
A#|2-2-22-2-02-23-0-2-2-22-2-2-0---| 4th time
D#|2-2-22-2-02-23-0-2-2-22-2-2-0---|
       xx x             xx x

Guitar 2

C#|--------------------------------|
G#|--------------------------------|
C#|--------------------------------|
F#|--7---7---7---7---7---7---7---7-|
A#|-8-8-8-8-8-8-8-8-8-8-8-8-8-8-8-8|
D#|9---9---9---9---9---9---9---9---| X 5

Verse (Points of Authority)

Guitar 1
C#|--------------------------------|
G#|--------------------------------|
C#|--------------------------------|
F#|2-2-22-2-02-23-0-2-2-22-2-2-0-3-|
A#|2-2-22-2-02-23-0-2-2-22-2-2-0-3-|
D#|2-2-22-2-02-23-0-2-2-22-2-2-0-3-| X 8
       xx x             xx x

Chorus (Points of Authority)

Guitar 1
C#|--------------------------------|
G#|--------------------------------|
C#|--------------------------------|
F#|2---------------3---------------|
A#|2---------------3---------------|
D#|2---------------3---------------| X 2

Verse (Points of Authority)

Guitar 1
C#|--------------------------------|
G#|--------------------------------|
C#|--------------------------------|
F#|2-2-22-2-02-23-0-2-2-22-2-2-0-3-|
A#|2-2-22-2-02-23-0-2-2-22-2-2-0-3-|
D#|2-2-22-2-02-23-0-2-2-22-2-2-0-3-| X 8

Chorus (Points of Authority)

Guitar 1
C#|--------------------------------|
G#|--------------------------------|
C#|--------------------------------|
F#|2---------------3---------------|
A#|2---------------3---------------|
D#|2---------------3---------------| X 4

Guitar 2
C#|--------------------------------|
G#|--------------------------------|
C#|--------------------------------|
F#|--7---7---7---7---7---7---7---7-|
A#|-8-8-8-8-8-8-8-8-8-8-8-8-8-8-8-8|
D#|9---9---9---9---9---9---9---9---| X 3
[ Tab from: http://www.guitartabs.cc/tabs/l/linkin_park_and_jay_z/points_of_authority_99_problems_one_step_closer_tab.html ]
C#|--------------------------------|
G#|--------------------------------|
C#|--------------------------------|
F#|--7---7---7---7-----------------|
A#|-8-8-8-8-8-8-8-8----------------| last time
D#|9---9---9---9-------------------|

Verse (One Step Closer)

Guitar 1
C#|--------------------------------|
G#|--------------------------------|
C#|--------------------------------|
F#|--------------------------------|
A#|-----7---------------7----------|
D#|0-5-0---8-7-03--0-5-0---8-7-03--| X 6

C#|--------------------------------|
G#|--------------------------------|
C#|--------------------------------|
F#|5--55-5-5--55-5-5--55-5-5--55-5-|
A#|5--55-5-5--55-5-5--55-5-5--55-5-|
D#|5--55-5-5--55-5-5--55-5-5--55-5-| X 2
      xx x    xx x    xx x    xx x

C#|--------------------------------|
G#|--------------------------------|
C#|--------------------------------|
F#|--------------------------------|
A#|-----7---------------7----------|
D#|0-5-0---8-7-03--0-5-0---8-7-03--| X2

C#|--------------------------------|
G#|--------------------------------|
C#|--------------------------------|
F#|5--55-5-5--55-5-5--55-5-5--55-5-|
A#|5--55-5-5--55-5-5--55-5-5--55-5-|
D#|5--55-5-5--55-5-5--55-5-5--55-5-| X 2
      xx x    xx x    xx x    xx x

Guitar 2 (not too sure about this...)
C#|----------------------------10|10|10|10|
G#|---------------------------------------|
C#|---------------------------------------|
F#|---------------------------------------|
A#|---------------------------------------| last time
D#|---------------------------------------|

Chorus (One Step Closer)

Guitar 1
C#|------------------------------------|
G#|------------------------------------|
C#|------------------------------------|
F#|0-0-12-12-10-10-7-7-8-8-5-5-7-7-3-3-|
A#|0-0-12-12-10-10-7-7-8-8-5-5-7-7-3-3-|
D#|0-0-12-12-10-10-7-7-8-8-5-5-7-7-3-3-| X 4

C#|--------------------------------|
G#|--------------------------------|
C#|--------------------------------|
F#|1---1---1---1---1---1---1---1---|
A#|1---1---1---1---1---1---1---1---|
D#|1---1---1---1---1---1---1---1---|

Bridge (One Step Closer)

Guitar 1
C#|--------------------------------|
G#|--------------------------------|
C#|--------------------------------|
F#|--------------------------------|
A#|-----7---------------7----------|
D#|0-5-0---8-7-03--0-5-0---8-7-03--| X 2

C#|--------------------------------|
G#|--------------------------------|
C#|--------------------------------|
F#|1-0-0-0-3-1-0-6-1-0-0-0-3-1-0-6-|
A#|1-0-0-0-3-1-0-6-1-0-0-0-3-1-0-6-|
D#|1-0-0-0-3-1-0-6-1-0-0-0-3-1-0-6-| X 6

Chorus (One Step Closer)

Guitar 1
C#|------------------------------------|
G#|------------------------------------|
C#|------------------------------------|
F#|0-0-12-12-10-10-7-7-8-8-5-5-7-7-3-3-|
A#|0-0-12-12-10-10-7-7-8-8-5-5-7-7-3-3-|
D#|0-0-12-12-10-10-7-7-8-8-5-5-7-7-3-3-| X 4

C#|--------------------------------|
G#|--------------------------------|
C#|--------------------------------|
F#|1---1---1---1---1---1---1---1---|
A#|1---1---1---1---1---1---1---1---|
D#|1---1---1---1---1---1---1---1---|

That's all!!
Questions or comments, im free all the time: sebmajor@hotmail.com
Props to MTV for making LPJZ
cya
Comments