Linkin Park - X-ecutioner Style Chords & Tabs

 

X-ecutioner Style Chords & Tabs

Linkin Park Chords & Tabs

Version: 1 Type: Tab 0 ratings
1 star 2 stars 3 stars 4 stars 5 stars
comments

X-ecutioner Style Tab

-----------------------------------------------------------------------------
		     Xecutioner Style - Linkin Park
-----------------------------------------------------------------------------
Tabbed by:Shifty 04
Email:av_shifty_lp@hotmail.com

Tuning:Standard
[ Tab from: http://www.guitartabs.cc/tabs/l/linkin_park/x_ecutioner_style_tab.html ]
Intro/Chorus
e|--------------------------------------------------------------------------|
B|-----------------------------------11*---------------------------11*------|
G|--------------------------------8*----------------------------8*----------|
D|-9-8-xx-9-xx-9-xxxx-9-8-xx-9-xx--------9-8-xx-9-xx-9-xx-9-9-8-------------|
A|-9-8-xx-9-xx-9-xxxx-9-8-xx-9-xx--------9-8-xx-9-xx-9-xx-9-9-8-------------|
E|-7-6-xx-7-xx-7-xxxx-7-6-xx-7-xx--------7-6-xx-7-xx-7-xx-7-7-6-------------|

Verse
e|--------------------------------------------------------------------------|
B|--------------------------------------------------------------------------|
G|--------------------------------------------------------------------------|
D|-9-9-8---9-9-8---9-8--9/8------------9-9-8(      )-9-x-9-x-9--------------|
A|-9-9-8---9-9-8---9-8--9/8-(X4, then)-9-9-8(4 sec.)-9-x-9-x-9--------------|
E|-7-7-6---7-7-6---7-6--7/6------------7-7-6(      )-7-x-7-x-7--------------|
Comments