Linkin Park - With You Chords & Tabs

 

With You Chords & Tabs

Linkin Park Chords & Tabs

Version: 8 Type: Tab 0 ratings
1 star 2 stars 3 stars 4 stars 5 stars
comments

With You Tab

   
Band:Linkin Park
Title: With You
Tabbed by:Jim #4
Email:Megalomaniac@grin.de
Correct version
Tunning:
Standard 7 String b e a d g b e or 6 String tuned down to b e a d g b

Bass Intro:for guitar
e|---------------------|
b|---------------------|
g|---------------------|
d|---------------------|
a|---------------------|
e|---------------------|
b|-55-55-55-55-55------|

Intro:
e|-------------------------------|
b|-------------------------------|
g|-------------------------------|
d|-------------------------------|
a|-2--2-2-3--2-2-2--2--2---------|
e|-2--2-2-3--2-2-2--2--2---------|
b|-0--0-0-1--0-0-0--0--0--3*-----|
[ Tab from: http://www.guitartabs.cc/tabs/l/linkin_park/with_you_tab_ver_8.html ]
Verse:
e|----------------------------------------------------|
b|-------7*----5*----5*------7*-----------------------|
g|-7*-5*----7*----7*----5*-----7*---------------------|
d|-------------------------7*-------------------------|
a|----------------------------------------------------|
e|----------------------------------------------------|
b|----------------------------------------------------|

* harmonics

Pre-Chorus:
e|-------------------------------|
b|-------------------------------|
g|-------------------------------|
d|-------------------------------|
a|-2--2-2-3--2-2-2--2--2---------|
e|-2--2-2-3--2-2-2--2--2---------|
b|-0--0-0-1--0-0-0--0--0---3*----|

Chorus:
e|-------------------|
b|-------------------|
g|-------------------|
d|-------9----7---(4)|
a|-7-----9----5----5-|
e|-7-----7----3----5-|
b|-5-----0---------3-|
() optional

Interlude:
e|-------------------|
b|-------------------|
g|-------------------|
d|------------7------|
a|-7-----2----5----5-|
e|-7-----2----3----5-|
b|-5-----0---------3-|



Chorus:
e|-------------------|
b|-------------------|
g|-------------------|
d|-------9----7---(4)|
a|-7-----9----5----5-|
e|-7-----7----3----5-|
b|-5-----0---------3-|
Comments