Linkin Park - With You Chords & Tabs

 

With You Chords & Tabs

Linkin Park Chords & Tabs

Version: 7 Type: Tab 0 ratings
1 star 2 stars 3 stars 4 stars 5 stars
comments

With You Tab

   
Tabbed by: Cromlea-Tear 
Email: cromleatear@hotmail.com

Tuning: Standard Tuning

| /  slide up
| \  slide down
| h  hammer-on
| p  pull-off
| ~  vibrato
| +  harmonic
| .  Mute note

This song is not played on a 7-stringed guitar like many people think; it IS played
on a 6-string guitar. Also, this is basically the correct playing of the song, but
if you have any questions, comments, or concerns, e-mail me.

[INTRO] 0:12
Fig.1
e|----------------------|
B|----------------------|
G|----------------------|
D|--9---9-9--8-9--9-9-4-| x4
A|--9---9-9--8-9--9-9-4-|
E|--7---7-7-10-7--7-7-2-|
    .   . .  . .  . . .

This is 100% correct
Fig. 2 0:22
e|-----------------------------|
B|-----------------------------|
G|----------4~-----------------|
D|--2~------4~------7~------4~-| x1
A|--2~------2~------5~------5~-|
E|--0~--------------3~------5~-|

[PRE-CHORUS #1] 0:51
Fig.1
e|----------------------|
B|----------------------|
G|----------------------|
D|--9---9-9--8-9--9-9-4-| x8
A|--9---9-9--8-9--9-9-4-|
E|--7---7-7-10-7--7-7-2-|
    .   . .  . .  . . .
[ Tab from: http://www.guitartabs.cc/tabs/l/linkin_park/with_you_tab_ver_7.html ]
[CHORUS] 1:11
Fig.2
e|-----------------------------|
B|-----------------------------|
G|----------4~-----------------|
D|--2~------4~------7~------4~-| x1
A|--2~------2~------5~------5~-|
E|--0~--------------3~------5~-|

[PRE-CHORUS #1] 1:40
Fig.1 
e|----------------------|
B|----------------------|
G|----------------------|
D|--9---9-9--8-9--9-9-4-| x8
A|--9---9-9--8-9--9-9-4-|
E|--7---7-7-10-7--7-7-2-|
    .   . .  . .  . . .

[CHORUS] 1:59
Fig.2
e|-----------------------------|
B|-----------------------------|
G|----------4~-----------------|
D|--2~------4~------7~------4~-| x2
A|--2~------2~------5~------5~-|
E|--0~--------------3~------5~-|

[PRE-CHORUS #2] 2:31
Fig.2
e|-----------------------------|
B|-----------------------------|
G|----------4~-----------------|
D|--2~------4~------7~------4~-| x2
A|--2~------2~------5~------5~-|
E|--0~--------------3~------5~-|

[OUTRO] 2:50
e|-----------------------------|
B|-----------------------------|
G|----------4~-----------------|
D|--2~------4~------7~------4~-| x2
A|--2~------2~------5~------5~-|
E|--0~--------------3~------5~-|

And you're finished. Big up's to Linkin Park, this song owns.
Comments