Linkin Park - With You Chords & Tabs

 

With You Chords & Tabs

Linkin Park Chords & Tabs

Version: 6 Type: Tab 0 ratings
1 star 2 stars 3 stars 4 stars 5 stars
comments

With You Tab

   
ARTIST: [LINKIN PARK]
SONG: WITH YOU
ALBUM: HYBRID THEORY
GUITARIST: BRAD DELSON

   7-string. gtr. (w/heavy dist.) B, E, A, D, G, B, E
Or 6-string. gtr. (w/heawy dist.) B, E, A, D, G, B

 
00:12
Rhy. Fig 1

E|-----------------------------------|
B|-----------------------------------|
G|o---------------------------------o|
D|-----------------------------------| x4
A|o-2---2--2--3---2--2----2---2-----o|
E|--2---2--2--3---2--2----2---2------|
B|--0---0--0--1---0--0----0---0--3*--|
    .   .  .      .  .    .   .

 
00:22
Rhy. Fig. 2
E|--------------------------|
B|----------------3---------|
G|o--------4------2--------o|
D|--2------4------0------4--| x 1
A|o-2------2-------------5-o|
E|--0------2------3------5--|
B|---------0-------------3--|



[ Tab from: http://www.guitartabs.cc/tabs/l/linkin_park/with_you_tab_ver_6.html ]
00:51
Chorus:
Rhy. Fig. 1
E|-----------------------------------|
B|-----------------------------------|
G|o---------------------------------o|
D|-----------------------------------| x8
A|o-2---2--2--3---2--2----2---2-----o|
E|--2---2--2--3---2--2----2---2------|
B|--0---0--0--1---0--0----0---0--3*--|
    .   .  .      .  .    .   .
 

01:11
Rhy. Fig. 2
E|--------------------------|
B|----------------3---------|
G|o--------4------2--------o|
D|--2------4------0------4--| x 1
A|o-2------2-------------5-o|
E|--0------2------3------5--|
B|---------0-------------3--|

 

01:39
Rhy. Fig. 1
E|-----------------------------------|
B|-----------------------------------|
G|o---------------------------------o|
D|-----------------------------------| x8
A|o-2---2--2--3---2--2----2---2-----o|
E|--2---2--2--3---2--2----2---2------|
B|--0---0--0--1---0--0----0---0--3*--|
    .   .  .      .  .    .   .


01:59
Bridge:
Rhy. Fig. 2
E|--------------------------|
B|----------------3---------|
G|o--------4------2--------o|
D|--2------4------0------4--| x 2
A|o-2------2-------------5-o|
E|--0------2------3------5--|
B|---------0-------------3--|


02:31
Chorus:
Rhy. Fig. 2
E|--------------------------|
B|----------------3---------|
G|o--------4------2--------o|
D|--2------4------0------4--| x 4
A|o-2------2-------------5-o|
E|--0------2------3------5--|
B|---------0-------------3--|
THATS IT!
Comments