Linkin Park - With You Chords & Tabs

 

With You Chords & Tabs

Linkin Park Chords & Tabs

Version: 3 Type: Tab 0 ratings
1 star 2 stars 3 stars 4 stars 5 stars
comments

With You Tab

"With You" by Linkin Park
Tabbed by Caelum
caelumhades@hotmail.com

This is written for a 6 string, drop D (DADGBe)
It sounds perfect to me. The verse guitar was done 
according to the live version, which sounds a lot better.

intro: (palm mute)
-------------------
-------------------
-------------------
-2-2--2--2---------
-2-2--2--2---------
-2-2--2--2---------
[ Tab from: http://www.guitartabs.cc/tabs/l/linkin_park/with_you_tab_ver_3.html ]
-------------------------
-------------------------
-------------------------
-9-9-9-9/10-9-9-9-9-9-7*- *=harmonic
-9-9-9-9/10-9-9-9-9-9----
-9-9-9-9/10-9-9-9-9-9----

-------------------------
-------------------------
-------------------------
-2----9----5----0--------
-2----9----5----0--------
-2----9----5----0--------

Verse: (use a digital delay to really sound good)
---------------------------
12-11-7-----7-----------11-
--------9-----9--5---7-----
---------------------------
---------------------------
---------------------------
For timing listen to the live version.

That's pretty much the whole song. 
If you have question/comments, please
mail me. 
Comments