Linkin Park - With You Chords & Tabs

 

With You Chords & Tabs

Linkin Park Chords & Tabs

Version: 3 Type: Bass Tab 0 ratings
1 star 2 stars 3 stars 4 stars 5 stars
comments

With You Bass Tab

   
Please be patinet coz its my first tab.

Right, this song requires a 5-string tuned normally (G,D,a,E,B) 
But you can play it on a 4-string by down tuning A to E and E to B.
Since most people have a 4, i'm gonna tab the 4 version

Okay, have fun:

Intro, (with some weird overdrive type effect)

Intro (0:00)
G----------------------
D----------------------
E----------------------
B-5-5--5-5--5-5--5-5---

Chorus  (0:12)
G--------------------------------
D--------------------------------
E--------------------------------X4
B-0-0-0-0-2-0-0-0-0-0-0--16------
[ Tab from: http://www.guitartabs.cc/tabs/l/linkin_park/with_you_btab_ver_3.html ]
Riff (0:22)
G--------------------------------
D--------------------------------
E--0-----6---------3-------------
B------------------------3-------


Verse - No bass ( that i can hear at any rate)

Chrous (0:51) x 8

Riff 2 (1:11)
G--------------------------------
D--------------------------------
E--0-----6---------3-----10------
B--------------------------------

Then:
Verse (1:21-1:40)-No bass
Chorus (1:40) x 8
Riff 2 (1:59) x 2
Intro (2:19) x 4
Riff 2 (2:31) x 5
Intro (3:10) Just play along with the record until it fades out

There it is, hope you like it 
Really not much of a challenge for a good bass player, so mess around it,
add notes, change octaves, bend notes, flatten notes, just have fun playing
Comments