Linkin Park - System Chords & Tabs

 

System Chords & Tabs

Linkin Park Chords & Tabs

Version: 1 Type: Tab 0 ratings
1 star 2 stars 3 stars 4 stars 5 stars
comments

System Tab

intro:

-2-2---5*------12*------------
--0-0----7*-5*----------------
------------------------------
------------------------------
------------------------------
------------------------------
[ Tab from: http://www.guitartabs.cc/tabs/l/linkin_park/system_tab.html ]
VERSE
in harmonics
-------4*--------9*-
----5*----7*---7*---
-12*---------5*-----
--------------------
--------------------
--------------------

Chorus and Bridge:"Why won't you die"

--------------------12*----
--------------------12*----  (don't play the last harmonics 
-----------7--5--0--12*----   during the bridge)
-88888888--5--7--5---------
-88888888--5--5--3---------
-88888888--5---------------
Comments