Linkin Park - System Chords & Tabs

 

System Chords & Tabs

Linkin Park Chords & Tabs

Version: 1 Type: Bass Tab 0 ratings
1 star 2 stars 3 stars 4 stars 5 stars
comments

System Bass Tab

   
-----------------------------------------------------------------------------
			     SYSTEM - Chester Bennington
-----------------------------------------------------------------------------

Tabbed By : KornKid89
e-mail: XblytheX89@aol.com (Please e-mail me with any comments.)


Chester Bennington - vocals 
Jonathan Davis - guitar, bass, keyboards
Vinnie Colaiuta - drums

standard tuning

Intro:
  (pt.1)
G|------------------|---------------|---------------|---------------|-------|
D|------------------|---------------|---------------|---------------|-------|
A|----3-0h1p0h1p0h1-|-3-1h3p1h3p1h3-|-3-0h1p0h1p0h1-|-3-1h3p1h3p1h3-|-3-0h1-|
E|------------------|---------------|---------------|---------------|-------|


  (pt.2)    "sys---tem"     "sys---tem"     "sys---tem"     "sys--
G|---------------|---------------|---------------|---------------|
D|---------------|---------------|---------------|---------------|
A|---------------|---------------|---------------|---------------|
E|--5h6-5--5h6-5~|--5h6-5--5h6-3~|--5h6-5--5h6-3~|--5h6-5--5h6-3~|
 


Verse:    
           "You fell away..."            
G|---------------|---------------|---------------|---------------|
D|---------------|---------------|---------------|---------------|
A|---------------|---------------|---------------|---------------|
E|--5h6-5--5h6-5~|--5h6-5--5h6-3~|--5-6-5--5-6-3~|--5-6-5--5-6-5~|
[ Tab from: http://www.guitartabs.cc/tabs/l/linkin_park/system_btab.html ]
G|---------------|---------------|---------------|---------------|
D|---------------|---------------|---------------|---------------|
A|---------------|---------------|---------------|---------------|
E|--5h6-5--5h6-3~|--5h6-5--5h6-3~|--5-6-5--5-6-5~|--5-6-5--5-6-3~|



Chorus:   
          "Why won't you die?..."  
G|--------|--------|--------|--------|
D|--------|--------|--------|--------|
A|--------|--------|--------|--------|
E|55555555|55555555|33333333|66666666|
(x4)



Verse 2:
  (intro)
G|---------------|---------------|---------------|-----------|
D|---------------|---------------|---------------|-----------|
A|---------------|---------------|---------------|-----------|
E|--5h6-5--5h6-5~|--5h6-5--5h6-3~|--5h6-5--5h6-5~|--5h6-5--5-|

G|---------------|
D|---------------|
A|---------------|
E|-0h3p0h3p0h3p0-|

D|---------------|---------------|
G|---------------|---------------|
A|---------------|---------------|
E|--5h6-5--5h6-5~|--5h6-5--5h6-3~|
(x4)



(Chorus)



Bridge:
D|----------|-------------|
G|----------|-------------|
A|-0--------|-4~~~5--3--1-|
E|----------|-------------|
(x2)

 "Why is everything so f***ing hard for me?..."
D|----------|-------------|
G|----------|-------------|
A|-0--------|-4~~~5--3--1-|
E|----------|-------------|
(x6)



Outro: (fade out)
G|------------------|---------------|---------------|---------------|
D|------------------|---------------|---------------|---------------|
A|----3-0h1p0h1p0h1-|-3-1h3p1h3p1h3-|-3-0h1p0h1p0h1-|-3-1h3p1h3p1h3-|
E|------------------|---------------|---------------|---------------|
Comments