Linkin Park - Step Up Chords & Tabs

 

Step Up Chords & Tabs

Linkin Park Chords & Tabs

Version: 2 Type: Tab 0 ratings
1 star 2 stars 3 stars 4 stars 5 stars
comments

Step Up Tab

ARTIST:LINKIN PARK
SONG:STEP UP
ALBUM:METEORA
TABBED BY - Arvind
This is all my work. Complaints are welcome. 

Tuned down to C.

INTRO
s=slide
----------------------------------
----------------------------------
----------------------------------
----------------------------------
--8-8-8-6-6-8-4-1-1-4s3---1-1s6--
----------------------------------

VERSE
----------------------------------
----------------------------------
----------------------------------
----------------------------------
--3s8---3s9-s8--------------------
----------------------------------

[ Tab from: http://www.guitartabs.cc/tabs/l/linkin_park/step_up_tab_ver_2.html ]
CHORUS
----------------------------------
----------------------------------
----------------------------------
-4-4-4-4--10S9--7-7-7-7--9-9-9-9--
-2-2-2-2---8S7--5-5-5-5--7-7-7-7--
----------------------------------

----------------------------------
----------------------------------
----------------------------------
-4-4-4-4--10S9--3-3-3-3--5-5-5-5--
-2-2-2-2---8S7--1-1-1-1--3-3-3-3--
----------------------------------

BRIDGE
----------------------------------
----------------------------------
------2-0------2-0----------------
----2--------3--------------------
--3--------2----------------------
----------------------------------
Comments