Linkin Park - Step Up Chords & Tabs

 

Step Up Chords & Tabs

Linkin Park Chords & Tabs

Version: 1 Type: Tab 0 ratings
1 star 2 stars 3 stars 4 stars 5 stars
comments

Step Up Tab

   
Band: Linkin Park
Song: Step Up
Album: Hybrid Theory EP
Tuning for guitar: Drop D (LP plays it drop D, one half step down) (6 string)

Intro
D----------------------------
A----------------------------
D----------------------------
G----------------------------
B-9-9-9-7-7-9-5-2-2-5-4-2-2/7
D----------------------------
[ Tab from: http://www.guitartabs.cc/tabs/l/linkin_park/step_up_tab.html ]
Verse
(only play ever once ina  while, lsiten to the song for exact timing)
D----------------------------
A----------------------------
D-9-10/15-14-----------------

Chorus
D-7-------------5-5-5-7-----------8-10-10-10-
A-7-8--8--7-7-5-5-5-5-7-8--8--7-7-8-10-10-10-
D-7-10-10-9-9-7-5-5-5-7-10-10-9-9-8-10-10-10-
G---10-10-9-9-7---------10-10-9-9------------

its not all of the song, but its more than the other tabs for this song have.  
The only parts missing are theguitar parts where the strange voice thingy is talking about music
weaponary or whatever

ace_knight1@hotmail.com for questions and stuff
Comments