Linkin Park - Step Up Chords & Tabs

 

Step Up Chords & Tabs

Linkin Park Chords & Tabs

Version: 1 Type: Bass Tab 0 ratings
1 star 2 stars 3 stars 4 stars 5 stars
comments

Step Up Bass Tab

Band- Linkin Park
Album- Hybrid Theory EP
Song- Step Up

Intro: No bass

Verse:
G|---------------------------------------------|
D|--R------------------------------------------|
A|---E-----------------------------------------|
E|----S-------4--------6-----------5-----------|
B|----T----------------------------------------|

Chorus:
G|------------------------------------------------------|
D|------------------------------------------------------|
A|--------------7---6-----4----4------------7-7-7-7-----|
E|----4--4--------------------------6---7---------------|
B|------------------------------------------------------|
[ Tab from: http://www.guitartabs.cc/tabs/l/linkin_park/step_up_btab.html ]
Bridge:
G|-------------------------------------|
D|-------------------------------------|
A|-------------------------------------|
E|---------3-3-3----6--6---7-----------|
B|-------------------------------------|

Pre-Chorus:
G|---------------------------------------------------------------------------------------|
D|---------------------------------------------------------------------------------------|
A|---------------------------------------------------------------------------------------|
E|--4-4-4-4-4-4---5-5-5-5-5-5-5---4-4-4-4-4-4--4---5-5-5-5-5-5---7-7-7-------------------|
B|---------------------------------------------------------------------------------------|
Comments