Linkin Park - Somewhere I Belong Chords & Tabs

 

Somewhere I Belong Chords & Tabs

Linkin Park Chords & Tabs

Version: 6 Type: Tab 0 ratings
1 star 2 stars 3 stars 4 stars 5 stars
comments

Somewhere I Belong Tab

Linkin Park
Somewhere I Belong
Tabbed by Cellkiller

Intro:                Verse:
E:--6--8---6--6----||---------------5------------------------------|
B:--7--9---7--6----||------6-----6-----6---------------------------|
G:--6--8---6--6----||---------7------------------------------------|
D:--8--10--6--6----||---7------------------------------------------|
A:-----------------||----------------------------------------------|
D:-----------------||----------------------------------------------|
                   ||                                              |
                   ||                                              |
                   ||---6--6---8---6--||---!!Not-Aligned-for-------|
                   ||---6--7---9---7--||-----timing!!-Just-play----|
                   ||---6--6---8---6--||-----behind-the-Verse------|
                   ||---6--8---10--6--||---------------------------|
                   ||-----------------||---------------------------|
                   ||-----------------||---------------------------|


Chorus
E:----------------------------------------------||------------------|
B:----------------------------------------------||------------------|
G:--10--10--10-10-8--8--8-8-6--6--6-6-8--8--8-8-||-8-8\-10----------|
D:--8---8---8--8--6--6--6-6-4--4--4-4-6--6--6-6-||-6-6\-8-----------|
A:--8---8---8--8--6--6--6-6-4--4--4-4-6--6--6-6-||-6-6\-8-----------|
D:--8---8---8--8--6--6--6-6-4--4--4-4-6--6--6-6-||-6-6\-8-----------|
[ Tab from: http://www.guitartabs.cc/tabs/l/linkin_park/somewhere_i_belong_tab_ver_6.html ]
Post-Chorus
E:------------------------------------------------------------------|
B:------------------------------------------------------------------|
G:--10-10------6-6------8-8-----10-10-------------------------------|
D:--8--8-------4-4------6-6-----8--8------------------(2x)----------|
A:--8--8-------4-4------6-6-----8--8--------------------------------|
D:--8--8-------4-4------6-6-----8--8--------------------------------|
 :                                                                  |
E:------------------------------------------------------------------|
B:------------------------------------------------------------------|
G:-------10-10-----10-10---10-10---10\12/10-------------------------|
D:-------10-10-----10-10---10-10---10\12/10-----------(2x)----------|
A:------------------------------------------------------------------|
D:------------------------------------------------------------------|

 (continued)
E:------------------------------------------------------------------|
B:------------------------------------------------------------------|
G:--10-10------6-6----8-8-----10-10---------------------------------|
D:--8--8-------4-4----6-6-----8--8----------------------------------|
A:--8--8-------4-4----6-6-----8--8----------------------------------|
D:--8--8-------4-4----6-6-----8--8----------------------------------|
 :                                                                  |
E:------------------------------------------------------------------|
B:------------------------------------------------------------------|
G:-------10-10-----6-6---10-10---10\12/10---------------------------|
D:-------10-10-----6-6---10-10---10\12/10---------------------------|
A:------------------------------------------------------------------|
D:------------------------------------------------------------------|

 (continued)
E:------------------------------------------------------------------|
B:------------------------------------------------------------------|
G:--10-10------6-6-----8-------10-----------------------------------|
D:--8--8-------4-4-----6-------10-----------------------------------|
A:--8--8-------4-4-----6-------10-----------------------------------|
D:--8--8-------4-4-----6-------8------------------------------------|
 :                                                                  |
E:------------------------------------------------------------------|
B:------------------------------------------------------------------|
G:-------10-10----10-10---10--10--6--8------------------------------|
D:-------10-10----10-10-----------------8~~~------------------------|
A:------------------------------------------------------------------|
D:-------------------------------------------------Cellkiller-------|
       

Intro: 2x
Verse: 8x
Chorus: 2x
Intro: 1x
Verse: 16x
Chorus: 4x
Verse: 16x
Chorus: 4x
Post-Chorus: 1x
Intro: 1x
Chorus: 6x

Corrections, requests, feedback, etc... teenagedirtbag@hotmail.com
Comments