Linkin Park - Somewhere I Belong Chords & Tabs

 

Somewhere I Belong Chords & Tabs

Linkin Park Chords & Tabs

Version: 5 Type: Tab 0 ratings
1 star 2 stars 3 stars 4 stars 5 stars
comments

Somewhere I Belong Tab


somewhere i belong

[ Tab from: http://www.guitartabs.cc/tabs/l/linkin_park/somewhere_i_belong_tab_ver_5.html ]
LINKIN PARK - METEORA - SOMEWHERE I BELONG
this is my first tab...
e-----------------4------------------------------------------------------
B--------6------------6--------------------------------------------------
G---3--------3-----------------------------------------------------------
D------------------------------------------------------------------------
A------------------------------------------------------------------------
E------------------------------------------------------------------------
 this goes through out the song (verse and intro)
and below goes for the chorus...
e------------------------------------------------------------------------
B------------------------------------------------------------------------
G----7-7-7-7----8-8-8-8----10-10-10-10----8-8-8-8------------------------
D----7-7-7-7----6-6-6-6-----8--8--8--8----6-6-6-6------------------------
A----5-5-5-5----6-6-6-6-----8--8--8--8----6-6-6-6------------------------
E------------------------------------------------------------------------

e------------------------------------------------------------------------
B------------------------------------------------------------------------
G----7-7-7-7----8-8-8-8----5-5-5-5----3-3-3-3----------------------------
D----7-7-7-7----6-6-6-6----3-3-3-3----3-3-3-3----------------------------
A----5-5-5-5----6-6-6-6----3-3-3-3----1-1-1-1----------------------------
E------------------------------------------------------------------------
and then for the dj thing u can still try this with a little bit of ~vibrato~:
e--------------------------------------
B-------------------------------------
G-------------------------------------
D-------------------------------------
A--------11------8-------10-------4---
E---------9------6-------8--------2---
u can find all that with the rythm of the song...
ENJOY... (xav_4ever@hotmail.com)
Comments