Linkin Park - Somewhere I Belong Chords & Tabs

 

Somewhere I Belong Chords & Tabs

Linkin Park Chords & Tabs

Version: 4 Type: Tab 0 ratings
1 star 2 stars 3 stars 4 stars 5 stars
comments

Somewhere I Belong Tab

here is the tablature for "somewhere i belong", linkin park's first
single on meteora. if you have any corrections e mail me. Bizkit0888

intro/ verses
[ Tab from: http://www.guitartabs.cc/tabs/l/linkin_park/somewhere_i_belong_tab_ver_4.html ]
E|--2---5-2---2---5-2---2---5-2---2---5-2--------------------------
B|0---0-----0---0-----0---0-----0---0------------------------------
G|-----------------------------------------------------------------
D|-----------------------------------------------------------------
A|-----------------------------------------------------------------
E|-----------------------------------------------------------------

chorus/out of intro

E|-----------------------------------------------------------------
B|-----------------------------------------------------------------
G|--------5---2-------------7--------------------------------------
D|2---5---5---2-----2---5---7---7----------------------------------
A|2---5---3---0-----2---5---5---7----------------------------------
E|0---3-------------0---3-------5----------------------------------

that is all i have done so far. have fun
Comments