Linkin Park - Somewhere I Belong Chords & Tabs

 

Somewhere I Belong Chords & Tabs

Linkin Park Chords & Tabs

Version: 2 Type: Tab 3 ratings
1 star 2 stars 3 stars 4 stars 5 stars
comments

Somewhere I Belong Tab

   
Hey alright, this is the new song from Linkin Park n it kicks so much
ass. i was surprised no one had tabbed it yet. so here it is, the 
tuning might scare you though!
Tuning from low to high: (B,F#,B,E,Ab,C#)

 Intro/Verse/outro
 C#|--------------
 Ab|---------13----
 E |----14------14-
 B |-12----12------
 F#|---------------
 B |---------------

Fill:
 C#|---------
 Ab|---------
 E |---------
 B |-3-3-3-3-
 F#|-3-3-3-3-
 B |-3-3-3-3-
hm...........
[ Tab from: http://www.guitartabs.cc/tabs/l/linkin_park/somewhere_i_belong_tab_ver_2.html ]
 Chrous
 C#|-----------------------------------
 Ab|------------------------------------
 E |------------------------------------
 B |-0-0-3-3-10-10-5-5--0-0-3-3-8-8-5-5-
 F#|-0-0-3-3-10-10-5-5--0-0-3-3-8-8-5-5-
 B |-0-0-3-3-10-10-5-5--0-0-3-3-8-8-5-5-

Bridge
C#|-------------------------------------------------
Ab|-------------------------------------------------
E |-------------------------------------------------
B |-0-0-7-3-3-7-10-10-7-5-5-7-0-0-7-3-3-7-8-8-7-5-5-
F#|-0-0---3-3---10-10---5-5---0-0---3-3---8-8---5-5-
B |-0-0---3-3---10-10---5-5---0-0---3-3---8-8---5-5-

Intro 8x
fill 1x
Chorus 1x
Verse 16x
Fill 1x
Chorus 2x
verse 16x
Fill
Chorus 2x
Bridge 2x
Chorus 4x
Fill  3x

n e comments r whatever this is my email : virus_dude12@hotmail.com
Comments