Linkin Park - Somewhere I Belong Chords & Tabs

 

Somewhere I Belong Chords & Tabs

Linkin Park Chords & Tabs

Version: 16 Type: Tab 0 ratings
1 star 2 stars 3 stars 4 stars 5 stars
comments

Somewhere I Belong Tab

This song is originally played in Drop D with the guitars tuned down another
half step.  Although it really doesn't take that much time to detune, I still
prefer to play it in just plain Drop D.  It sounds fine either way.  I decided
to translate it to Drop D for those of you who HATE detuning.

Drop D tuning
s     slide
PM    palm muting
x     muffled strings


Intro (x4)      There is an acoustic guitar in the intro, but it is played
digitally, so it sounds kind of weird, but here it is anyway.  If you play this
part on an electric guitar, play it with a clean tone
e[----------------------------------------------
B[----------------------------------------------
G[-6------6------6------------------------------
D[-8------4------6------1-----------------------
A[-8------4------6------1-----------------------
D[-8------4------6------1-----------------------

Intro (x8)/Verse (x16)     Play this part right before the chours
e[------------------------]----------------------
B[--6-6---6-9-6-----------]---11-11-11-11--------
G[------------------------]---10-10-10-10--------
D[------------------------]---8--8--8--8---------
A[------------------------]----------------------
D[------------------------]----------------------
                            PM............

Guitar 1 Chorus (x2)  You also play the chorus for the intro  
e[--------------------------------------------------
B[--------------------------------------------------
G[--------6------------------------6----------------
D[--8-----6-----6-----4------8-----6-----6-----1----
A[--8-----4-----6-----4------8-----4-----6-----1----
D[--8-----------6-----4------8-----------6-----1----

Guitar 2 Chorus (x2)
e[--------------------------------------------------
B[--------------------------------------------------
G[--------6-----10----8------------6----------------
D[--8-----6-----x-----x------8-----6-----6-----1----
A[--8-----4-----8-----6------8-----4-----6-----1----
D[--8------------------------8-----------6-----1----

Verse

Chorus
[ Tab from: http://www.guitartabs.cc/tabs/l/linkin_park/somewhere_i_belong_tab_ver_16.html ]
Bridge (x4)
e[-------------------------------------------------------------------
B[-------------------------------------------------------------------
G[---------10--10----------10--10----------10--10-----------5s6--5---
D[--8--8---x---x----4--4---x---x----6--6---x---x-----1--1---x-x--x---
A[--8--8---8---8----4--4---8---8----6--6---8---8-----1--1---3s4--3---
D[--8--8------------4--4------------6--6-------------1--1------------

On the third time, Brad and Mike play this
e[-------------------------------------------------------------------
B[-------------------------------------------------------------------
G[---------10--10----------13--13----------10--10----------5s6--5----
D[--8--8---x---x----4--4---x---x----6--6---x---x----1--1---x-x--x----
A[--8--8---8---8----4--4---11--11---6--6---8---8----1--1---3s4--3----
D[--8--8------------4--4------------6--6------------1--1-------------

Then they go back to this
e[-------------------------------------------------------------------
B[-------------------------------------------------------------------
G[---------10--10----------10--10----------10--10-----------5s6--5---
D[--8--8---x---x----4--4---x---x----6--6---x---x-----1--1---x-x--x---
A[--8--8---8---8----4--4---8---8----6--6---8---8-----1--1---3s4--3---
D[--8--8------------4--4------------6--6-------------1--1------------

Then this to end the bridge
e[----------------------------------------------
B[----------------11-11-11-11-11-11-11-11-------
G[----------------10-10-10-10-10-10-10-10-------
D[--1-------------8--8--8--8--8--8--8--8--------
A[--1-------------------------------------------
D[--1-------------------------------------------
                 PM.......................


Chorus

Outro (x3)
e[----------------------------------------------------------
B[------------------------11-11-11-11-----------------------
G[------------------------10-10-10-10-----------------------
D[--8--8-8--8--8--8--8----8--8--8--8------------------------
A[--8--8-8--8--8--8--8--------------------------------------
D[--8--8-8--8--8--8--8--------------------------------------
                         PM...........

End on this
e[----------------------------------------------
B[----------------------------------------------
G[----------------------------------------------
D[--8--8-8--8--8-8--8---------------------------
A[--8--8-8--8--8-8--8---------------------------
D[--8--8-8--8--8-8--8---------------------------

That's it

Song Structure
Digital acoustic intro
Intro (x8)
Chorus (x2)
Verse (x16)
Chorus (x2)
Verse (x2)
Chorus (x2)
Bridge (x4)
Chorus (x4)
Outro (x3)
End

Enjoy
Comments