Linkin Park - Somewhere I Belong Chords & Tabs

 

Somewhere I Belong Chords & Tabs

Linkin Park Chords & Tabs

Version: 15 Type: Tab 0 ratings
1 star 2 stars 3 stars 4 stars 5 stars
comments

Somewhere I Belong Tab

   
Artist: Linkin Park
Album: Meteora
Song: Somewhere I Belong
Tabbed By: freakboy
E-mail: surfpark71@hotmail.com
Tuning: Db,Ab,Db,Gb,Bb,Eb

Intro
Eb|-------------------------------------------------------------------------|
Bb|--------10---------------------------------------------------------------|
Gb|---11------11------------------------------------------------------------|
Db|-9----9------------------------------------------------------------------|
Ab|-------------------------------------------------------------------------|
Db|-------------------------------------------------------------------------|

Guitar 1
Eb|-------------------------------------------------------------------------|
Bb|-------------------------------------------------------------------------|
Gb|-------------------------------------------------------------------------|
Db|-4----7----5----2----4----7----7----2------------------------------------|
Ab|-2----5----5----2----2----5----7----2------------------------------------|
Db|-----------5----2--------------7----2------------------------------------|

Guitar 2
Eb|-------------------------------------------------------------------------|
Bb|-------------------------------------------------------------------------|
Gb|-8----9----11---9----8----9----6----4------------------------------------|
Db|-------------------------------------------------------------------------|
Ab|-6----7----9----7----6----7----4----2------------------------------------|
Db|-------------------------------------------------------------------------|

Verse
Eb|-------------------------------------------------------------------------|
Bb|--------10---------------------------------------------------------------|
Gb|---11------11------------------------------------------------------------|
Db|-9----9--------------9-9-9-9-9-9-9-9-------------------------------------|
Ab|-------------------------------------------------------------------------|
Db|-------------------------------------------------------------------------|
                       pm...............
[ Tab from: http://www.guitartabs.cc/tabs/l/linkin_park/somewhere_i_belong_tab_ver_15.html ]
Chorus Guitar 1
Eb|-------------------------------------------------------------------------|
Bb|-------------------------------------------------------------------------|
Gb|-------------------------------------------------------------------------|
Db|-4----7----5----2------------4----7----7----2----------------------------|
Ab|-2----5----5----2----(3x)----2----5----7----2----------------------------|
Db|-----------5----2----------------------7----2----------------------------|

Chorus Guitar 2
Eb|-------------------------------------------------------------------------|
Bb|-------------------------------------------------------------------------|
Gb|-8----9----11---9------------8----9----6----4----------------------------|
Db|---------------------(3x)------------------------------------------------|
Ab|-6----7----9----7------------6----7----4----2----------------------------|
Db|-------------------------------------------------------------------------|

Bridge
Eb|-------------------------------------------------------------------------|
Bb|-------------------------------------------------------------------------|
Gb|------11--------11--------11--------6-/-7-\-6----------------------------|
Db|-4---------5---------7---------2-----------------(2x)--------------------|
Ab|-2----9----5----9----7----9----2----4-/-5-\-4----------------------------|
Db|-----------5---------7---------2-----------------------------------------|

Eb|-------------------------------------------------------------------------|
Bb|-------------------------------------------------------------------------|
Gb|------11--------14---------11--------6-/-7-\-6---------------------------|
Db|-4---------5----------7---------2----------------------------------------|
Ab|-2----9----5----12----7----9----2----4-/-5-\-4---------------------------|
Db|-----------5----------7---------2----------------------------------------|

Eb|-------------------------------------------------------------------------|
Bb|-------------------------------------------------------------------------|
Gb|------11--------11---------9---------6----4------------------------------|
Db|-4---------5----------7---------2------------------9-9-9-9-9-9-9-9-------|
Ab|-2----9----5----9-----7----7----2----4----2------------------------------|
Db|-----------5----------7---------2----------------------------------------|
                                                     pm..............

The End Part
Eb|-------------------------------------------------------------------------|
Bb|-------------------------------------------------------------------------|
Gb|-------------------------------------------------------------------------|
Db|-4----9-9-9-9----4----9-9-9-9----4----9-9-9-9----4-----------------------|
Ab|-2---------------2---------------2---------------2-----------------------|
Db|-------------------------------------------------------------------------|
        pm......        pm......        pm......
Comments