Linkin Park - Somewhere I Belong Chords & Tabs

 

Somewhere I Belong Chords & Tabs

Linkin Park Chords & Tabs

Version: 13 Type: Tab 0 ratings
1 star 2 stars 3 stars 4 stars 5 stars
comments

Somewhere I Belong Tab

Artist: Linkin Park.
Song: Somewhere i Belong.
Album: Meteora.
Transcribed by: Paul.
E-mail: lplplplplplp@linkinpark.com


I just got the new Guitar World magizine, and it has the somewhere i Belong tab
in it so I decided to tab it for you guys! Guitar World says that there are 4
guitars playing in this song! And it says that its played in (Eb-Ab-Db-Gb-Bb-Eb)
tuning. Well here is the correct way to play it!

     Intro. digitally processed and altered using Pro Tools.
Eb|----------------------------------------------------------|
Bb|-3----------------------------------0------------0--------|
Gb|-4-----------4-----------6----------0------------0--------|
Db|-4-----------5-----------7----------0-----2------2--------|
Ab|-2-----------5-----------7----------0-----2------2--------|
Eb|-------------3-----------5----------0------------0--------|

            Intro guitar 2.
Eb|----------------------------------|
Bb|--------10----------10------------|
Gb|--11------11---11-----11----------|
Db|-9----9-------9----9--------------|
Ab|----------------------------------|
Eb|----------------------------------|

        Intro, guitar 3 with distortion.
Eb|----------------------------------------------|
Bb|----------------------------------------------|
Gb|----------------------------------------------|
Db|-4----7----12----9----4-----7-----7----2------|
Ab|-2----5----10----7----2-----5-----7----2------|
Eb|-2----5----10----7----2-----5-----5----0------|
[ Tab from: http://www.guitartabs.cc/tabs/l/linkin_park/somewhere_i_belong_tab_ver_13.html ]
        Intro, guitar 4 with distortion.
Eb|---------------------------------------------------|
Bb|---------------------------------------------------|
Gb|-8-----9-----11-----9-----8-----9-----6-----4------|
Db|---------------------------------------------------|
Ab|-6-----7-----9------7-----6-----7-----4-----2------|
Eb|---------------------------------------------------|

  Chorus, guitar 3 plays first two bars as shown on intro, guitar 4 plays this.
Eb|-------------------------------------------------|
Bb|-------------------------------------------------|
Gb|-8-----9-----11----9-----8----9-----6-----4------|
Db|-------------------------------------------------|
Ab|-6-----7-----9-----7-----6----7-----4-----2------|
Eb|-------------------------------------------------|

         Bridge, guitar 3.
Eb|----------------------------------|
Bb|----------------------------------|
Gb|----------------------------------|
Db|-4-------5--------7--------2------|
Ab|-2-------5--------7--------2------|
Eb|-2-------3--------5--------0------|

                        Bridge, guitar 4.
Eb|-----------------------------------------------------------------|
Bb|-----------------------------------------------------------------|
Gb|-11-----11----11------6/7\6----11-----14-----11----6/7\6---------|
Db|-----------------------------------------------------------------|
Ab|-9------9-----9-------4/5\4----9------12-----9-----4/5\4---------|
Eb|-----------------------------------------------------------------|


Then you go right back into the chorus. Well I hope you like it.
It's copied striaght from "Gtr World Mag."
Comments