Linkin Park - Somewhere I Belong Chords & Tabs

 

Somewhere I Belong Chords & Tabs

Linkin Park Chords & Tabs

Version: 12 Type: Tab 0 ratings
1 star 2 stars 3 stars 4 stars 5 stars
comments

Somewhere I Belong Tab

-------------------------------------------------------------------------------
			SOMEWHERE I BELONG - Linkin Park
-------------------------------------------------------------------------------

Tabbed by: Rob Bickford
Email: caasi_11@hotmail.com

On the chorus I put each chord as strummed 4x to save room, 
but you really strum each chord 8x


Riff

Eb----------------
Bb----------10----
Gb---11--11----11- 8x
Db-9--------------
Fb----------------
Eb----------------

Volume Swell (played over the Riff on the 8th time)

Eb--------------- 
Bb--------------- 
Gb-4------------- 1x
Db-x-------------
Ab-2-------------
Eb---------------
 
Chorus
 		   1.________________2.___________________
Eb-----------------|-----------------|---------------------
Bb-----------------|-----------------|---------------------
Gb-----------------|-----------------|--------------------- 1x
Db-1-1-1-1-0-0-0-0-|-4-4-4-4-2-2-2-2-|-11-11-11-11-2-2-2-2-
Ab-2-2-2-2-0-0-0-0-|-5-5-5-5-2-2-2-2-|--0--0--0--0-2-2-2-2-
Eb-2-2-2-2-10101010|-3-3-3-3-0-0-0-0-|--9--9--9--9-0-0-0-0-

Riff

Eb----------------
Bb----------10----
Gb---11--11----11- 15x
Db-9--------------
Fb----------------
Eb----------------

Pre-Chorus

Eb-------------------------
Bb-------------------------
Gb------------------------- 1x
Db-9*-9*-9*-9*-9*-9*-9*-9*-
Ab-9*-9*-9*-9*-9*-9*-9*-9*-
Eb-7*-7*-7*-7*-7*-7*-7*-7*-

Chorus
		   1., 2., 3.,_______4.____________________
Eb-----------------|-----------------|---------------------
Bb-----------------|-----------------|---------------------
Gb-----------------|-----------------|--------------------- 1x
Db-1-1-1-1-0-0-0-0-|-4-4-4-4-2-2-2-2-|-11-11-11-11-2-2-2-2-
Ab-2-2-2-2-0-0-0-0-|-5-5-5-5-2-2-2-2-|--0--0--0--0-2-2-2-2-
Eb-2-2-2-2-10101010|-3-3-3-3-0-0-0-0-|--9--9--9--9-0-0-0-0-

Riff

Eb----------------
Bb----------10----
Gb---11--11----11- 15x
Db-9--------------
Fb----------------
Eb----------------

Pre-Chorus

Eb-------------------------
Bb-------------------------
Gb------------------------- 1x
Db-9*-9*-9*-9*-9*-9*-9*-9*-
Ab-9*-9*-9*-9*-9*-9*-9*-9*-
Eb-7*-7*-7*-7*-7*-7*-7*-7*-
[ Tab from: http://www.guitartabs.cc/tabs/l/linkin_park/somewhere_i_belong_tab_ver_12.html ]
Chorus
		   1., 2., 3.,_______4.____________________
Eb-----------------|-----------------|---------------------
Bb-----------------|-----------------|---------------------
Gb-----------------|-----------------|--------------------- 1x
Db-1-1-1-1-0-0-0-0-|-4-4-4-4-2-2-2-2-|-11-11-11-11-2-2-2-2-
Ab-2-2-2-2-0-0-0-0-|-5-5-5-5-2-2-2-2-|--0--0--0--0-2-2-2-2-
Eb-2-2-2-2-10101010|-3-3-3-3-0-0-0-0-|--9--9--9--9-0-0-0-0-

Bridge 1

Eb------------------------------------------------
Bb------------------------------------------------
Gb-----11-11------11-11------11-11-------11/12\11-- 2x
Db-9-9--x--x--5-5--x--x--7-7--x--x--2-2--x--x--x---
Ab-9-9--9--9--5-5--9--9--7-7--9--9--2-2--9/-10\9---
Eb-7-7--------3-3--------5-5--------0-0------------
 
Bidge 2

Eb-------------------------------------------------
Bb-------------------------------------------------
Gb-----11-11------14-14------11-11-------11/12\11-- 1x
Db-9-9--x--x--5-5--x--x--7-7--x--x--2-2--x--x--x---
Ab-9-9--9--9--5-5-12-12--7-7--9--9--2-2--9/-10\9---
Eb-7-7--------3-3--------5-5--------0-0------------

Bridge 3

Eb----------------------------------------------
Bb----------------------------------------------
Gb-----11-11------11-11-------9-9-------12----9- 1x
Db-9-9--x--x--5-5--x--x--7-7--x-x--2-2--x-----x-
Ab-9-9--9--9--5-5--9--9--7-7--7-7--2-2--10----7-
Eb-7-7--------3-3--------5-5-------0-0----------

Pre-Chorus

Eb-----------------------
Bb-----------------------
Gb----------------------- 1x
Db-9*-9*-9*-9*-9*-9*-9*-9*-
Ab-9*-9*-9*-9*-9*-9*-9*-9*-
Eb-7*-7*-7*-7*-7*-7*-7*-7*-

Chorus
		   1.________________2.___________________
Eb-----------------|-----------------|---------------------
Bb-----------------|-----------------|---------------------
Gb-----------------|-----------------|--------------------- 4x
Db-1-1-1-1-0-0-0-0-|-4-4-4-4-2-2-2-2-|-11-11-11-11-2-2-2-2-
Ab-2-2-2-2-0-0-0-0-|-5-5-5-5-2-2-2-2-|--0--0--0--0-2-2-2-2-
Eb-2-2-2-2-10101010|-3-3-3-3-0-0-0-0-|--9--9--9--9-0-0-0-0-
      
Outro

|-----------------------------------------
|-----------------------------------------
|----------------------------------------- 3x
|-1-1-1-1-1-1-1-9*-9*-9*-9*-1-1-1-1-1-1-1- 
|-2-2-2-2-2-2-2-9*-9*-9*-9*-2-2-2-2-2-2-2- 
|-2-2-2-2-2-2-2-7*-7*-7*-7*-2-2-2-2-2-2-2- 

| /  slide up
| \  slide down
| +  harmonic

===============================================================================
Comments