Linkin Park - Somewhere I Belong Chords & Tabs

 

Somewhere I Belong Chords & Tabs

Linkin Park Chords & Tabs

Version: 11 Type: Tab 0 ratings
1 star 2 stars 3 stars 4 stars 5 stars
comments

Somewhere I Belong Tab

Tuning - Drop C#/Db
Tabbed by  Ed G. (w/help from Andrew C)

Intro:

Guitar1
e|---------------------------------|
B|---------7---------10----7-------|
G|------------7--------------------|  Repeat 8x
D|-----9---------9-----------------|
A|---------------------------------|
D|---------------------------------|
Guitar2
e|----------------|-----------------|----------------|---------------|
B|----------------|-----------------|----------------|---------------|
G|----------------|-----------------|----------------|---------------|
D|---4------------|----7------------|-----5----------|-------2-------|
A|---2------------|----5------------|-----5----------|-------2-------|
D|---4------------|----7------------|-----5----------|------2--------|

e|---------------|----------------|----------------|----------------|
B|---------------|----------------|----------------|----------------|
G|---------------|----------------|----------------|----------------|
D|---4-----------|----7-----------|-----2----------|------2---------|
A|---2-----------|----5-----------|-----0----------|------2---------|
D|---4-----------|----7-----------|-----2----------|------2---------|

Verse:
Guitar1
e|---------------------------------|
B|---------7---------10----7-------|
G|------------7--------------------|  Repeat Several Times
D|-----9---------9-----------------|
A|---------------------------------|
D|---------------------------------|
Fill Before Chorus:
e|--------------|
B|--------------|
G|-4444---------|
D|--------------|
A|--------------|
D|--------------|
  Palm-Muted


Chorus:

Guitar1
e|----------------|----------------|----------------|----------------|
B|----------------|----------------|----------------|----------------|
G|-8--------------|-9--------------|-11-(6)---------|-9-(4)----------|
D|-x--------------|-x--------------|-x--(x)---------|-x-(x)----------|
A|-6--------------|-7--------------|-9--(4)---------|-7-(2)----------|
D|----------------|----------------|----------------|----------------|


e|---------------|----------------|----------------|--------------|
B|---------------|----------------|----------------|--------------|
G|---------------|----------------|----------------|--------------|
D|---4-----------|----7-----------|-----2----------|------2-------|
A|---2-----------|----5-----------|-----0----------|------2-------|
D|---4-----------|----7-----------|-----2----------|------2-------|

play the ()'s every second time you play the chorus


Bridge:
[ Tab from: http://www.guitartabs.cc/tabs/l/linkin_park/somewhere_i_belong_tab_ver_11.html ]
e|----------------|----------------|---------------|---------------------|
B|----------------|----------------|---------------|---------------------|
G|--------11-11---|--------11-11---|--------11-11--|------------6/7/6----|
D|-9-9----x--x----|-5-5----x--x----|-7-7----x--x---|-2-2--------x-x-x----|
A|-9-9----9--9----|-5-5----9--9----|-7-7----9--9---|-2-2--------4/5/4----|
D|-9-9------------|-5-5------------|-7-7-----------|-2-2-----------------|


e|----------------|----------------|---------------|--------------------|
B|----------------|----------------|---------------|--------------------|
G|--------11-11---|--------11-11---|--------11-11--|------------6/7/6---|
D|-9-9----x--x----|-5-5----x--x----|-7-7----x--x---|-2-2-------x-x-x----|
A|-9-9----9--9----|-5-5----9--9----|-7-7----9--9---|-2-2--------4/5/4---|
D|-9-9------------|-5-5------------|-7-7-----------|-2-2----------------|

e|----------------|----------------|---------------|--------------------|
B|----------------|----------------|---------------|--------------------|
G|--------11-11---|--------14-14---|--------11-11--|----------6/7/6-----|
D|-9-9----x--x----|-5-5----x--x----|-7-7----x--x---|-2-2------x-x-x-----|
A|-9-9----9--9----|-5-5----12-12---|-7-7----9--9---|-2-2------4/5/4-----|
D|-9-9------------|-5-5------------|-7-7-----------|-2-2----------------|

e|----------------|----------------|---------------|---------------------|
B|----------------|----------------|---------------|---------------------|
G|--------11-11---|--------11-11---|--------11-11--|----------6/7----4---|
D|-9-9----x--x----|-5-5----x--x----|-7-7----x--x---|-2-2------xx-----x---|
A|-9-9----9--9----|-5-5----9--9----|-7-7----9--9---|-2-2------4/5----2---|
D|-9-9------------|-5-5------------|-7-7-----------|-2-2-----------------|
then
e|------------|
B|------------|
G|-4444-------|
D|------------|
A|------------|
D|------------|
  Palm-Muted
 
 Repeat Chorus 3 more times

Outro:
Guitar1
e|---------------|-------------|
B|---------------|-------------|
G|---------------|--4-4-4-4----|
D|-4--4--4--4--4-|-------------|               Repeat 3x
A|-2--2--2--2--2-|-------------|
D|-4--4--4--4--4-|-------------|
                    Palm-Muted   
e|---------------|----------------|
B|---------------|----------------|
G|---------------|----------------|
D|-4--4--4--4--4-|----------------|             Repeat 3x
A|-2--2--2--2--2-|----------------|
D|-4--4--4--4--4-|----------------|
 
End With:

e|---------------|
B|---------------|
G|---------------|
D|-4--4--4--4--4-|
A|-2--2--2--2--2-|
D|-4--4--4--4--4-|
Comments