Linkin Park - Somewhere I Belong Chords & Tabs

 

Somewhere I Belong Chords & Tabs

Linkin Park Chords & Tabs

Version: 10 Type: Tab 0 ratings
1 star 2 stars 3 stars 4 stars 5 stars
comments

Somewhere I Belong Tab

THE FULL SONG ....  ONLY DROP D TUNING HAVE FUN! .... 
T-$ and Tweak

Intro
e|--------------|
B|-6-6--6-9--6--|
G|--------------|
D|--------------|
A|--------------|
D|--------------|

Bridge to the Verse
e|----------------|----------------|----------------|----------------|
B|----------------|----------------|----------------|----------------|
G|----------------|-6--------------|----------------|----------------|
D|-8--------------|-6--------------|-6--------------|-4--------------|
A|-8--------------|-4--------------|-6--------------|-4--------------|
D|-8--------------|----------------|-6--------------|-4--------------|


Verse
e|--------------|
B|-6-6--6--9--6-|
G|--------------|
D|--------------|
A|--------------|
D|--------------|

Chorus
e|----------------|----------------|----------------|----------------|
B|----------------|----------------|----------------|----------------|
G|----------------|-6--------------|----------------|----------------|
D|-8--------------|-6--------------|-4--------------|-1--------------|
A|-8--------------|-4--------------|-4--------------|-1--------------|
D|-8--------------|----------------|-4--------------|-1--------------|

Bridge
e|----------------|----------------|---------------|----------------|
B|----------------|----------------|---------------|----------------|
G|--------10-10---|--------10-10---|--------10-10--|----------------|
D|-8-8----10-10---|-4-4----10-10---|-6-6----10-10--|-1-1------------|
A|-8-8----8--8----|-4-4----8--8----|-6-6----8--8---|-1-1----4h6-3---|
D|-8-8------------|-4-4------------|-6-6-----------|-1-1------------|
[ Tab from: http://www.guitartabs.cc/tabs/l/linkin_park/somewhere_i_belong_tab_ver_10.html ]
e|----------------|----------------|---------------|----------------|
B|----------------|----------------|---------------|----------------|
G|--------10-10---|--------10-10---|--------10-10--|----------------|
D|-8-8----10-10---|-4-4----10-10---|-6-6----10-10--|-1-1------------|
A|-8-8----8--8----|-4-4----8--8----|-6-6----8--8---|-1-1----4h6-3---|
D|-8-8------------|-4-4------------|-6-6-----------|-1-1------------|

e|----------------|----------------|---------------|----------------|
B|----------------|----------------|---------------|----------------|
G|--------10-10---|--------10-10---|--------12-12--|----------------|
D|-8-8----10-10---|-4-4----10-10---|-6-6----12-12--|-1-1------------|
A|-8-8----8--8----|-4-4----8--8----|-6-6----10-10--|-1-1----4h6-3---|
D|-8-8------------|-4-4------------|-6-6-----------|-1-1------------|

e|----------------|----------------|---------------|----------------|
B|----------------|----------------|---------------|----------------|
G|--------10-10---|--------10-10---|--------10-10--|----------------|
D|-8-8----10-10---|-4-4----10-10---|-6-6----10-10--|-1-1------------|
A|-8-8----8--8----|-4-4----8--8----|-6-6----8--8---|-1-1----4h6-3---|
D|-8-8------------|-4-4------------|-6-6-----------|-1-1------------|

Outro
e|----------------|----------------|        |-------------|
B|----------------|----------------|        |-------------|
G|----------------|-15-15-15-15----|        |-------------|
D|-8-8-8-8-8-8----|-13-13-13-13----|   (3x) |-8-8-8-8-8-8-|
A|-8-8-8-8-8-8----|-13-13-13-13----|        |-8-8-8-8-8-8-|
D|-8-8-8-8-8-8----|----------------|        |-8-8-8-8-8-8-|
                    Palm Mute       
Order:

Intro             X9
Bridge to Verse   x2
Verse             x16
Chorus            X4
Verse             X16
Chorus            X4
Bridge            X1
Verse             X4
Chorus            X6
Outro             X1
Comments